Oops, an error
Loading. Please wait.

So Small Tab

2,683 views 1 this week
no commentswrite comment
1 2 3 4 5
please rate
add to favorites
launch autoscroll
font size
0
reset
how to read this tab
guitar tuner
Tab Pro tools
  • play this tab
  • loop segment
  • change instrument
  • show fretboard
  • metronome
Autoscroll
slow
fast
+/-
esc
set tempo
stop
Difficulty
intermediate
Key of G

Tuning: C  G  D  G  D  D

/ \ = slide
 ^  = hammer on
< > = harmonics

Intro: (play 2x) (slight palm mute)
-0---0----0-------0----0---0--0---0--0-----0---|
-0---0----0-------0----0---0--0---0--0-----0---|
-0---0----0---0---0----0---0--0---0--0---0-0-0-|
-5^7-7----9\7-5---5----7/9-9--9\7-5--5^7-7---7-|
-4---4----0-----0-0----0---0--0---0--7---7---7-|
-4---4----0-----0-0------------------6---6---6-|

Verse:
-0----0----0----0----0----0----0----0-|
-0----0----0----0----0----0----0----0-|
-0----0----4----0----0----0----4----0-| (rakes)
-5----2----0----7----5----2----0----7-|
-4----0----0----7----4----0----0----7-|
-4----0---------6----4----0---------6-|

---------0---0---0---0---0---0---0---0-|
---------0---0---0---0---0---0---0---0-|
-<7>-------0-------0----0--0-------0---| (play loosely)
-<7>----5---5---2---2--5----5---7---7--|
-<7>---4-------0-------0-------7-------|
-------4-------0---------------6-------|

-0----0----0--------|
-0----0----0--------|
-0----2----4--------| (slight palm mute)
-2----4----5--------|
-0----0----0--------|
-0----0----0----11\-|

Chorus:
-0----0----0----0----0----0----0-|
-0----0----0----0----0----0----0-|
-0----0----0----0----0----0----0-|
-2----5----4----5----5----9----7-|
-0----4----2----4----5----9----7-|
-0----4----2---------------------|

-0----0----0----0----0----0----0-|
-0----0----0----0----0----0----0-|
-0----0----0----0----0----0----0-|
-2----5----4----5----5----9----7-|
-0----4----2----4----5----9----7-|
-0----4----2---------------------|

-0----0----0----0--0--0----0----0----0-|
-0----0----0----0--0--0----0----0----0-|
-0----0----0----0--0--0----2----4----0-|
-5----5----7----5--0--2----4----5----4-|
-5----4----7----4--4--0----0----0----2-|
----------------4-----0----0----0----2-|

-0----0----0----0----0--|
-0----0----0----0----0--|
-0----0----0----0----0--| (last chorus only)
-2----4----5----7--\-4--|
-0----2----5----7--\-2--|
-0----2----4----6--\-2--|

Bridge: (play 2x)
-0---0----0----0---0--0-|
-0---0----0----0---0--0-|
-0---0----0----0---0--0-|
-0^2-2--/-5----7/9-9--7-|
-2---2--/-5----0---0--7-|
----------------------6-|

Outro:
-0---0----0-------0----0---0--0---0--0-----0---------|
-0---0----0-------0----0---0--0---0--0-----0-------0-|
-0---0----0---0---0----0---0--0---0--0---0-0------0--|
-5^7-7----9\7-5---5----7/9-9--9\7-5--5^7-7-------2---|
-4---4----0-----0-0----0---0--0---0--7---7------0----|
-4---4----0-----0-0------------------6---6-----0-----|
comments
We did not receive enough feedback on this tab! Please rate:
print report bad tab
1 2 3 4 5
I want to post or [tab]
guest
You may want to rate the tab now too:
select rating
Please do not post tabs as comments. Select "correction" instead!