Oops, an error
Loading. Please wait.

Stay Tab

18,763 views 48 this week
1 commentread comment
1 2 3 4 5
x 4
add to favorites
launch autoscroll
font size
0
reset
how to read this tab
guitar tuner
Autoscroll
slow
fast
+/-
esc
set tempo
stop
Help us to improve Ultimate-Guitar.com Take our survey!
×
Tuning
D# G# C# F# A# D#
Stay - Boyce Avenue
Tabbed by: Kingsley

Tuning: Half Step Down

Tabbed this before Boyce Avenue uploaded a video for this cover,
so everything here is by ear. If you happen to find any mistakes
please leave a correction so I can fix it. Thanks.


[Intro/Verse]

e|-----------------0-----------0-----------0-----|
B|-------1-------1---1-------1---1-------1---1---|
G|-----0---5---2-------0---2-------0---2-------0-|
D|---2-----3-2---------0-2---------0-2---------0-| 
A|-3---------0-----------0-----------0-----------|
E|-----------------------------------------------|(x6)

[Pre-Chorus]

e|-----------------------0-----------0-----|
B|-------1-------1-----1---1-------1---1---|
G|-----2-------0-----2-------0---2-------0-|
D|---3-------2-----2---------0-2---------0-|
A|---------0-------0-----------0-----------|
E|-1---------------------------------------|

e|-------------------------------|
B|-------1-------1-------1-------|
G|-----2-------0-------0---0-----|
D|---3-------2-------0-------0---|
A|---------0---------------------|
E|-1---------------3-----------3-|

[Chorus]
e|-------0-----------1-----------0-----------1-----|
B|-----1---1-------3---3-------1---1-------1---1---|
G|---0-------0---2-------2---2-------2---2-------2-|
D|-------------0-----------------------------------| 
A|-3-----------------------0-----------3-----------|
E|-------------------------------------------------|(x2)

e|-----------------0-----------0-----------0-----|
B|-------1-------1---1-------1---1-------1---1---|
G|-----0---5---2-------0---2-------0---2-------0-|
D|---2-----3-2---------0-2---------0-2---------0-|
A|-3---------0-----------0-----------0-----------|
E|-----------------------------------------------|

[Verse]
e|-----------------0-----------0-----------0-----|
B|-------1-------1---1-------1---1-------1---1---|
G|-----0---5---2-------0---2-------0---2-------0-|
D|---2-----3-2---------0-2---------0-2---------0-| 
A|-3---------0-----------0-----------0-----------|
E|-----------------------------------------------|(x2)

[Pre-Chorus]
e|-----------------------0-----------0-----|
B|-------1-------1-----1---1-------1---1---|
G|-----2-------0-----2-------0---2-------0-|
D|---3-------2-----2---------0-2---------0-|
A|---------0-------0-----------0-----------|
E|-1---------------------------------------|

e|-------------------------------|
B|-------1-------1-------1-------|
G|-----2-------0-------0---0-----|
D|---3-------2-------0-------0---|
A|---------0---------------------|
E|-1---------------3-----------3-|

[Chorus]
e|-------0-----------1-----------0-----------1-----|
B|-----1---1-------3---3-------1---1-------1---1---|
G|---0-------0---2-------2---2-------2---2-------2-|
D|-------------0-----------------------------------| 
A|-3-----------------------0-----------3-----------|
E|-------------------------------------------------|(x2)

e|-----------------0-----------0-----------0-----|
B|-------1-------1---1-------1---1-------1---1---|
G|-----0---5---2-------0---2-------0---2-------0-|
D|---2-----3-2---------0-2---------0-2---------0-|
A|-3---------0-----------0-----------0-----------|
E|-----------------------------------------------|

[Bridge]
e|---------------------------------------------------------|
B|-------1-------------1-------------1-------------1-------|
G|-----2---2---2-----2---2---2---2-----2---2-----2---2---2-|
D|---3-------3-----2-------2---2---2-----2-----2-------2---| 
A|---------------0-------------0-------------0-------------|
E|-1-------------------------------------------------------|(x3)

e|-------------------------------------------|
B|-------1-------------1-------------1-------|
G|-----2---2---2-----2---2---2-----0---0-----|
D|---3-------3-----2-------2-----0-------0---|
A|---------------0---------------------------|
E|-1---------------------------3-----------3-|

[Chorus]
e|-------0-----------1-----------0-----------1-----|
B|-----1---1-------3---3-------1---1-------1---1---|
G|---0-------0---2-------2---2-------2---2-------2-|
D|-------------0-----------------------------------| 
A|-3-----------------------0-----------3-----------|
E|-------------------------------------------------|(x2)

e|-------0-------------1-------------0-------------1-------|
B|-----1---1---1-----3---3---3-----1---1---1-----1---1---1-|
G|---0-------0-----2-------2-----2-------2-----2-------2---|
D|---------------0-----------------------------------------| 
A|-3---------------------------0-------------3-------------|
E|---------------------------------------------------------|(x2)

[Outro]
e|------------|
B|-1--3--1----|
G|------------|
D|----0-----3-|
A|-3-----0----|
E|----------1-|
Suggest correction
comments
print report bad tab
1 comment total.
0 reply
fernandodesma 10 May 14, 2014 04:05 AM

I think it's on Half Step Down + Drop D

guest
You may want to rate the tab now too:
select rating
Wanna post a correction for this tab? Suggest correction