Oops, an error
Loading. Please wait.

Superman Tab

version 1
version 1

Whole song

134,697 views 72 this week
12 commentsread comments
1 2 3 4 5
x 29
add to favorites
launch autoscroll
font size
0
reset
how to read this tab
guitar tuner
Autoscroll
slow
fast
+/-
esc
set tempo
stop
Help us to improve Ultimate-Guitar.com Take our survey!
×
Author
Tuning
E B E G# B E
Superman – Boyce Avenue (Five For Fighting Cover)
http://www.youtube.com/watch?v=Bw3tYiAFVfg

Tabbed by: Esperance aka „Floloschdar“ ;)
  
 
Tuning:
D A D A C# E
 
[Intro]
---------------------------------|
---------------------------------|
-----0^2-----2^0-----0^2-----4^0-|
---2-------2-------4-------0-----|
-0-------------------------------|
---------2-------4-------0-------|

[Verse 1]
-----------------|
-----------------|
-0---2---0---0---|
-2---2---4---4---| (play 2x) 
-0---------------|
-----2---4---0---|

[Chorus 1]
----------------------------------|
----------------------------------|
-----0^2-----2^0----0^2-----4^0---|
---2-------2------4-------0-------|
-0--------------------------------|
---------2-------4------0---------| 

----------------------------------------------------|
------------------------0--------------------<12>---|
-----0^2-----2-----0------0-------------<12>--------|
---2-------2-----0------------<12>------------------|
-0---------------------------------<12>-------------|
---------2-----0------------------------------------|

[Verse 2]
----------------------------------|
----------------------------------|
-----0^2-----2^0----0^2-----4^0---|
---2-------2------4-------0-------| (play 2x) 
-0--------------------------------|
---------2-------4------0---------| 

[Chorus 2]
-----------------------------------------------------------|
-----------------------------------------------------------|
-----0^2-----0-----0^2-----0-----0^2-----0-----4/5-----0---|
---2-------2-----2-------2-----4-------4-----0-------0-----| 
-0-------0-------------------------------------------------|
---------------2-------2-----4-------4-----0-------0-------|

--------------------------------------|
---------------------0----------------|
-----0-----2-----0-----0--------------|
---2-----2-----0-----------11~---9~---|
-0------------------------------------|
-------2-----0------------------------|

[Bridge]
----------------------------------------0---------------------------|
-----0-------0-------0-------0--------0---------0-------0-------0---|
---0---0---0---0---0---0---0---0----0---------0-------0-------0-----|
-4-------6-------7-------9------------------7-------7-------4-------|
------------------------------------------9-------0-------2---------|
-4-------6-------7-------9-------11---------------------------------|
 
-------0---------|
-----0---0-------|
---0-------0-----|
-0-----------2---|
-----------------|
-----------------|
 
[Verse 3]
-----------------|
-----------------|
-----------------| 
-2---6---7---4---| (play 2x)
-0---7---9---5---|
-----------------| 

[Chorus 3]
-----------------------------------------------------------|
-----------------------------------------------------------|
-----0^2-----0-----0^2-----0-----0^2-----0-----4/5-----0---|
---2-------2-----2-------2-----4-------4-----0-------0-----| 
-0-------0-------------------------------------------------|
---------------2-------2-----4-------4-----0-------0-------| 

-----------------------------------------------------------|
-----------------------------------------------------------|
-----0^2-----0-----0^2-----0-----0^2-----0-----4/5-----0---|
---2-------2-----2-------2-----4-------4-----0-------0-----| 
-0-------0-------------------------------------------------|
---------------2-------2-----4-------4-----0-------0-------| 

-5-----4-----2-----0-----5-------4--------2-------0-------|
---0-----0-----0-----0-----0---0---0---0----0---0---0---0-|
-----0-----0-----0-----1-----0-------0--------0-------1---|
----------------------------------------------------------|
-------2--------------------------------------------------|
-0-----------2-----2-----4-------4--------0-------0-------|

-5-----4-----2-----0-----5-------4---------------|
---0-----0-----0-----0-----0---0---0---0---0-----|
-----0-----0-----0-----1-----0-------0-------0---|
-------------------------------------------------|
-------2-----------------------------------------|
-0-----------2-----2-----4-------4-------0-------|
 
[Outro]
-----------------------------------------|
-----------------------------------------|
-----0^2-----2^0-----0^2-----4/5-----4---|
---2-------2-------4-------0-------0-----|
-0---------------------------------------|
---------2-------4-------0-------0-------| 

--------|
--------|
---0~---|
---2~---|
---0~---|
--------|
 

************************************

x  = mute
/  = slide 
^  = hammer on or pull off
<> = harmonics 

************************************
Suggest correction
comments
print report bad tab
12 comments total. Showing first comments.
+1 reply
kbagnkop 21 Jun 23, 2011 05:54 AM

How do you get into the correct tuning? I had to put a capo on 2nd fret to get there?! :-)btw, awesome tab dude!!!!

0 reply
Espérance 183 Jun 30, 2011 04:49 PM

thank you buddy :)
i like to play a lot of stuff in alternate tunings and after some time you can hear all those tunings, too. (+ the video where you can also see a lot of the things alejandro is doing, which makes the job a lot easier)

sorry for the bad english x.x
cheers

+1 reply
mush11 10 Jul 05, 2011 11:23 AM

Finding it really hard to get into the tuning without breaking the strings...Help please???

guest
You may want to rate the tab now too:
select rating
Wanna post a correction for this tab? Suggest correction