Oops, an error
Loading. Please wait.

Superman Tab

version 2
version 2

Whole song

17,092 views 6 this week
no commentswrite comment
1 2 3 4 5
please rate
add to favorites
launch autoscroll
font size
0
reset
how to read this tab
guitar tuner
Tab Pro tools
  • play this tab
  • loop segment
  • change instrument
  • show fretboard
  • metronome
×
Best way to learn
"Superman"
Autoscroll
slow
fast
+/-
esc
set tempo
stop
Difficulty
Tuning
intermediate
D A D G B E
 
Tuning:
D A D G B E

x  = mute
/  = slide 
^  = hammer on or pull off
<> = harmonics

Intro:
---------------------------------|
-------0-----0--------0------2---|
-----2--------2------2--------2--|
---2-------2-------4-------0-----|
-0-------------------------------|
---------2-------4-------0-------|

Verse 1:
-----------------|
-----0-----------|
-2-------2---2---|
-2---2---4---4---| (play 2x) 
-0---------------|
-----2---4---0---|

Chorus 1:
---------------------------------|
-------0-----0--------0------2---|
-----2--------2------2--------2--|
---2-------2-------4-------0-----|
-0-------------------------------|
---------2-------4-------0-------|

----------------------------------------------------|
-------0-----0----------2--------------------<12>---|
-----2-------------2------2---------------<14>------|
---2-------2-----0---------------------<14>---------|
-0---------------------------------<12>-------------|
---------2-----0------------------------------------|

Verse 2 :
---------------------------------|
-------0-----0--------0------2---|
-----2--------2------2--------2--|  (play 2x)   
---2-------2-------4-------0-----|
-0-------------------------------|
---------2-------4-------0-------| 

Chorus 2:
-----------------------------------------------------------|
------0---------------0-------------0----------------------|
-----2-------2-----2-------2-----2-------2-----2/4-----2---|
---2-------2-----2-------2-----4-------4-----0-------0-----| 
-0-------0-------------------------------------------------|
---------------2-------2-----4-------4-----0-------0-------|

--------------------------------------|
-----------0---------2----------------|
-----2-----------2-----2--------------|
---2-----2-----0-----------11~---9~---|
-0------------------------------------|
-------2-----0------------------------|

Bridge:
---------------------------------------0---------------------------|
-----2-------------------------------------------------------2-----|
---2---2-----6-------6-------6-------6--------6--------6----2------|
-4-------6-7---7--7-7-7---9-7-7-----7------7-7------7-7----4-------|
------------------------------------------9-------0-------2--------|
-4-------6--------7-------9-------11-------------------------------|
 
-------0---------|
-----2---2-------|
---2-------2-----|
-0-----------2---|
-----------------|
-----------------|


Verse 3:
-----------------|
-----------------|
-----------------| 
-2---6---7---4---| (play 2x)
-0---7---9---5---|
-----------------| 

Chorus 3:
-----------------------------------------------------------|
-------0-------------0-------------0-----------------------|
-----2-------2-----2-------2-----2-------2-----2/4-----2---|
---2-------2-----2-------2-----4-------4-----0-------0-----| 
-0-------0-------------------------------------------------|
---------------2-------2-----4-------4-----0-------0-------| 

-----------------------------------------------------------|
-------0-------------0-------------0-----------------------|
-----2-------2-----2-------2-----2-------2-----2/4-----2---|
---2-------2-----2-------2-----4-------4-----0-------0-----| 
-0-------0-------------------------------------------------|
---------------2-------2-----4-------4-----0-------0-------|

-5-----4-----2-----0-----5-------4--------2-------0-------|
---2-----2-----2-----2-----2---2---2---2----2---2---2---2-|
-----2-----2-----2-----4-----2-------2--------2-------4---|
----------------------------------------------------------|
-------2--------------------------------------------------|
-0-----------2-----2-----4-------4--------0-------0-------|

-5-----4-----2-----0-----5-------4---------------|
---2-----2-----2-----2-----2---2---2---2---2-----|
-----2-----2-----2-----4-----2-------2-------2---|
-------------------------------------------------|
-------2-----------------------------------------|
-0-----------2-----2-----4-------4-------0-------|


Outro:
-----------------------------------------|
-------0-----0---------0--------------------|
-----2---------2-----2-------2/4-----2---|
---2-------2-------4-------0-------0-----|
-0---------------------------------------|
---------2-------4-------0-------0-------| 

--------|
--------|
---2~---|
---2~---|
---0~---|
--------|
comments
We did not receive enough feedback on this tab! Please rate:
print report bad tab
1 2 3 4 5
I want to post or [tab]
guest
You may want to rate the tab now too:
select rating
Please do not post tabs as comments. Select "correction" instead!