Oops, an error
Loading. Please wait.

Superman Tab

version 3
version 3

Whole song

15,963 views 33 this week
2 commentsread comments
1 2 3 4 5
excellent!
x 2
add to favorites
launch autoscroll
font size
0
reset
how to read this tab
guitar tuner
Tab Pro tools
  • play this tab
  • loop segment
  • change instrument
  • show fretboard
  • metronome
×
Best way to learn
"Superman"
Autoscroll
slow
fast
+/-
esc
set tempo
stop
Contributor
Difficulty
intermediate
                                      Boyce Avenue - Superman
Tabbed by: TheGuitarrer
Email: bayer_lukas1@web.de

Tuning: Standard Tuning (same tuning as the other tab, it's for these guys who 
don't want to tune the guitar in this way)

Intro:
e|--------------------------------------| The (5) is played by picking the 
B|--------------------------------------| E string with your finger barely
G|-----2h4-------4p2------2h4-------6/2-| touching the 5th fret (harmonics)
D|---2---------2--------4---------0-----| You can also just mute the note.
A|-0------------------------------------|
E|----------0---------2--------(5)------|
                                h

Verse 1:
e|-----------------|
B|-----------------| (play 2x)
G|-2---4---2---2---|
D|-2---2---4---4---| 
A|-0---------------|
E|-----0---2-------|

Chorus 1:
e|--------------------------------------|
B|--------------------------------------|
G|-----2h4-------4p2------2h4-------6/2-|
D|---2---------2--------4---------0-----|
A|-0------------------------------------|
E|----------0---------2--------(5)------|
                                h

e|-----------------------------------------------------|
B|--------------------------2-------------------(14)---|
G|-----2h4------4-------2-----2------------(14)--------|
D|---2--------2-------0----------(12)------------------|
A|-0----------------------------------(12)-------------|
E|----------0------(5)---------------------------------|
                    h              h    h    h    h

Verse 2:
e|--------------------------------------|
B|--------------------------------------|
G|-----2h4-------4p2------2h4-------6/2-| (play 2x)
D|---2---------2--------4---------0-----|
A|-0------------------------------------|
E|----------0---------2--------(5)------|
                                h

Chorus 2:
e|----------------------------------------------------------------|
B|----------------------------------------------------------------|
G|-----2h4-----2-----2h4-----2-----2h4------2-------6/7-------2---|
D|---2-------2-----2-------2-----4--------4-------0---------0-----|
A|-0-------0------------------------------------------------------|
E|---------------0-------0-----2--------2-----(5)-------(5)-------|
                                               h         h

e|---------------------------------------|
B|----------------------2----------------|
G|-----2-----4------2-----2--------------|
D|---2-----2------0-----------11~---9~---|
A|-0-------------------------------------|
E|-------0-----(5)-----------------------|
                h

Bridge:
e|----------------------------------------0---------------------------|
B|-----2-------2-------2-------2--------2---------2-------2-------2---|
G|---2---2---2---2---2---2---2---2----2---------2-------2-------2-----|
D|-4-------6-------7-------9------------------7-------7-------4-------|
A|------------------------------------------9-------0-------2---------|
E|-2-------4-------5-------7-------9----------------------------------|
 
e|-------0---------|
B|-----2---2-------|
G|---2-------2-----|
D|-0-----------2---|
A|-----------------|
E|-----------------|

Verse 3:
e|-----------------|
B|-----------------|
G|-----------------| (play 2x)
D|-2---6---7---4---|
A|-0---7---9---5---|
E|-----------------|


Chorus 3:
e|--------------------------------------------------------------|
B|--------------------------------------------------------------|
G|-----2h4-----2-----2h4-----2-----2h4-----2------6/7-------2---|
D|---2-------2-----2-------2-----4-------4------0---------0-----|
A|-0-------0----------------------------------------------------|
E|---------------0-------0-----2-------2-----(5)-------(5)------|
                                              h         h

e|--------------------------------------------------------------|
B|--------------------------------------------------------------|
G|-----2h4-----2-----2h4-----2-----2h4-----2------6/7-------2---|
D|---2-------2-----2-------2-----4-------4------0---------0-----|
A|-0-------0----------------------------------------------------|
E|---------------0-------0-----2-------2-----(5)-------(5)------|
                                              h         h

e|--5------4------2-----0-----5-------4--------2--------0---------|
B|----2------2------2-----2-----2---2---2---2----2---2----2---2---|
G|------2------2------2-----3-----2-------2--------2--------3-----|
D|----------------------------------------------------------------|
A|---------2------------------------------------------------------|
E|-(5)------------0-----0-----2-------2-------(5)------(5)--------|
    h                                          h        h 

e|--5------4------2-----0-----5-------4----------------|
B|----2------2------2-----2-----2---2---2---2----2-----|
G|------2------2------2-----3-----2-------2--------2---|
D|-----------------------------------------------------|
A|---------2-------------------------------------------|
E|-(5)------------0-----0-----2-------2-------(5)------|
    h                                          h

Outro:
e|-------------------------------------------|
B|-------------------------------------------|
G|-----2h4-----4p2-----2h4------6/7------6---|
D|---2-------2-------4--------0--------0-----|
A|-0-----------------------------------------|
E|---------0-------2-------(5)------(5)------| 
                            h        h 

e|--------|
B|--------|
G|---2~---|
D|---2~---|
A|---0~---|
E|--------|

************************************

| /   slide
| h   hammer-on
| p   pull-off
| ~   vibrato
|( )  harmonic
  h
***********************************
I hope it's right so far. E-mail me if something is wrong.
comments
We did not receive enough feedback on this tab! Please rate:
print report bad tab
1 2 3 4 5
2 comments total.
0 reply
Davo_126 wrote on September 13 2012, 08:17 am

hey,

you can make this far easier by playing opens on B instead of your 4s on the G.

same applies to your 5 on the bottom E. just play open A.

Cheers.

0 reply
kansoftball27 wrote on March 21 2013, 11:25 am

The bridge is kind of impossible...

I want to post or [tab]
guest
You may want to rate the tab now too:
select rating
Please do not post tabs as comments. Select "correction" instead!