Oops, an error
Loading. Please wait.

The One That Got Away Tab

11,809 views 18 this week
1 commentread comment
1 2 3 4 5
x 3
add to favorites
launch autoscroll
font size
0
reset
how to read this tab
guitar tuner
Autoscroll
slow
fast
+/-
esc
set tempo
stop
Help us to improve Ultimate-Guitar.com Take our survey!
×
Author
Difficulty
novice
tuning: Eb-Ab-C#-F#-Ab-Eb

Verse:
Eb--5----------------2-------------|
Ab---0------7-----------------5----|
C#-----------6--------4--------0---|
F#---------------------------------|
Ab----0-------0--------0--------0--|
Eb-----0-------0--------0--------0-|

Chorus:
Eb----------------------------|             note: there is a harmonic at the end of the
Ab----------------------------|                   of the 1st Chorus that is just the
C#--7----6----4----6----7-----|             high E and high B string.
F#----------------------------|
Ab---0-0--0-0--0-0--0-0--0-0--|
Eb----0----0----0----0----0---|

Bridge: you can keep doing the tab for the chorus; to end the bridge end on the 7th fret 
on D string (note of Ab)

First half of chorus after the bridge is just the patttern for the verse. Then it fades into this:

Eb---------------------------|
Ab---------------------------|
C#--7----6----4----6----7----|
F#---------------------------|
Ab---0----0----0----0----0---|
Eb----0----0----0----0----0--|

back to normal chorus. Then ones(vocals), and song ends. Pretty simple!
Suggest correction
Give kudos to tab author, rate the tab!
1 2 3 4 5
comments
print report bad tab
1 comment total.
0 reply
bli22ard 10 Nov 11, 2012 04:42 PM

I think you tabbed the strings backwards.. but it's pretty acurate :) thanks for the tab!

guest
You may want to rate the tab now too:
select rating
Wanna post a correction for this tab? Suggest correction