Oops, an error
Loading. Please wait.

Titanium Tab

186,351 views 69 this week
5 commentsread comments
1 2 3 4 5
x 43
add to favorites
launch autoscroll
font size
0
reset
how to read this tab
guitar tuner
Autoscroll
slow
fast
+/-
esc
set tempo
stop
Help us to improve Ultimate-Guitar.com Take our survey!
×
Author
Titanium - Boyce Avenue (Cover)
Tabbed By: Tehotherviray

This is my first tab so please give me feedback and comment/message for any 
suggestions or mistakes... Enjoy!

Tuning: Standard


[Intro]

Slightly Palm Muted
E|------------------------------------------------------------------------------|
B|------------------------------------------------------------------------------|
G|-------2---4---2----------0---2---0---------2---4---2--5----4---2---4---0-----|
D|-----0---0---0---0------0---0---0---0-----0---0---0-----------0---0---0-------|
A|------------------------------------------------------------------------------|
E|---3-----------------2-----------------0----------------0---------------------|

[Verse]

Slightly Palm Muted
E|------------------------------------------------------------------------------|
B|------------------------------------------------------------------------------|
G|-------2---4---2----------0---2---0---------2---4---2--5----4---2---4---0-----| x4
D|-----0---0---0---0------0---0---0---0-----0---0---0-----------0---0---0-------|
A|------------------------------------------------------------------------------|
E|---3-----------------2-----------------0----------------0---------------------|

[Chorus]

Slightly Palm Muted  
       C          D          Bm           Em
E|-----x----------x----------x------------x-------------------------------|
B|-----x----------x----------x------------x-------------------------------|
G|-----x----------7----------4------------9-------------------------------| x4
D|-----10---------7----------4------------9-------------------------------|
A|-----10---------5----------2------------7-------------------------------|
E|-----8----------x----------x------------x-------------------------------|

Then (x2): 

Strummed

       C          D          Bm           Em
E|-----0----------0----------0------------0-------------------------------|
B|-----0----------3----------0------------0-------------------------------|
G|-----0----------2----------4------------0-------------------------------|
D|-----2----------0----------4------------2-------------------------------|
A|-----3----------x----------2------------2-------------------------------|
E|-----x----------x----------x------------0-------------------------------|

[Verse]

Slightly Palm Muted
E|------------------------------------------------------------------------------|
B|------------------------------------------------------------------------------|
G|-------2---4---2----------0---2---0---------2---4---2--5----4---2---4---0-----| x4
D|-----0---0---0---0------0---0---0---0-----0---0---0-----------0---0---0-------|
A|------------------------------------------------------------------------------|
E|---3-----------------2-----------------0----------------0---------------------|

[Chorus]

Slightly Palm Muted  
       C          D          Bm           Em
E|-----x----------x----------x------------x-------------------------------|
B|-----x----------x----------x------------x-------------------------------|
G|-----x----------7----------4------------9-------------------------------| x4
D|-----10---------7----------4------------9-------------------------------|
A|-----10---------5----------2------------7-------------------------------|
E|-----8----------x----------x------------x-------------------------------|

Then (x2): 

Strummed

       C          D          Bm           Em
E|-----0----------0----------0------------0-------------------------------|
B|-----0----------3----------0------------0-------------------------------|
G|-----0----------2----------4------------0-------------------------------|
D|-----2----------0----------4------------2-------------------------------|
A|-----3----------x----------2------------2-------------------------------|
E|-----x----------x----------x------------0-------------------------------|

[Bridge]

Single Strummed
       C          D          Bm           Em
E|-----0----------0----------0------------0-------------------------------|
B|-----0----------3----------0------------0-------------------------------|
G|-----0----------2----------4------------0-------------------------------| x2
D|-----2----------0----------4------------2-------------------------------|
A|-----3----------x----------2------------2-------------------------------|
E|-----x----------x----------x------------0-------------------------------|

[Chorus]

Slightly Palm Muted  
       C          D          Bm           Em
E|-----x----------x----------x------------x-------------------------------|
B|-----x----------x----------x------------x-------------------------------|
G|-----x----------7----------4------------9-------------------------------| x4
D|-----10---------7----------4------------9-------------------------------|
A|-----10---------5----------2------------7-------------------------------|
E|-----8----------x----------x------------x-------------------------------|

Then (x2): 

Strummed

       C          D          Bm           Em
E|-----0----------0----------0------------0-------------------------------|
B|-----0----------3----------0------------0-------------------------------|
G|-----0----------2----------4------------0-------------------------------|
D|-----2----------0----------4------------2-------------------------------|
A|-----3----------x----------2------------2-------------------------------|
E|-----x----------x----------x------------0-------------------------------|



************************************

| x  Dead note

************************************
Suggest correction
comments
print report bad tab
5 comments total. Showing first comments.
0 reply
nhpe92 94 Aug 13, 2012 09:14 AM

everythin sounds perfectly well...maybe the chords are not all played on these positions, but it doesn't affect the sound

0 reply
ashmarsden 51 Aug 27, 2012 07:22 AM

no defo agree, the chords in the chorus are not the same, but defo sounds as good, love it, cheers

+2 reply
ashmarsden 51 Aug 28, 2012 09:27 AM

yeah after look at the video an havin a good listen, im jus makin a correction to the second half of parm muted chorus part when the beat starts buliding with it, it changes slighty,

x x x x
9 5 2 7
12 7 4 9
12 7 4 9
x x x x
x x x x

the last barred E is played throughout, its not the open E

Thanks again for the tab, lovin smashin this bad boy out

guest
You may want to rate the tab now too:
select rating
Wanna post a correction for this tab? Suggest correction