Oops, an error
Loading. Please wait.

We Are Young Tab

18,677 views 9 this week
3 commentsread comments
1 2 3 4 5
x 5
add to favorites
launch autoscroll
font size
0
reset
how to read this tab
guitar tuner
Autoscroll
slow
fast
+/-
esc
set tempo
stop
Help us to improve Ultimate-Guitar.com Take our survey!
×
Author
hey this is my first tab and im not too good at it so feel free to comment on 
anthing, goodluck!:D Please Rate so i know if it's good or not :P

standard tuning    no capo 
intro/verse 1 and chorus!
     D/A    D                                     D/C#
e|----------------0h2---------2---------2---------------|
B|---3----------3-----3-----3---3-----3---3-----3-----3-|
G|---2--------2-----------2---------2---------2-----2---|
D|---0------0-----------0---------0---------0-----------|
A|---0--------------------------------------------4-----|
E|------------------------------------------------------|

not sure pf the names of some of these chords sorry guys :(

e|---------0---------0---------0---------------------0--|
B|-------3---3-----3---3-----3---3-----3-----3-----3---3|
G|-----2---------2---------2---------2-----2-----0------|
D|------------------------------------------------------|
A|---2---------2---------2---------2-----0--------------|
E|---------------------------------------------3--------|





e|-------3-2-------2---------2---------0---------0------|
B|-----3---------3---3-----3---3-----3---3-----3---3----|
G|---0---------0---------0---------2---------2----------|
D|------------------------------------------------------|
A|-------------------------------0---------0------------|
E|-3---------3---------3--------------------------------|





e|-------0----------------------------------------------|
B|-----3---2-----2-2-3----------------------------------|
G|---2---------2----------------------------------------|
D|---------------------0--------------------------------|
A|-0---------0------------------------------------------|
E|------------------------------------------------------|



Thats pretty much the whole song  i think, hes does a couple hammer ons which yous 
should add in when yous get the rhythm :)
Heres a link to the video -- http://www.youtube.com/watch?v=OdVW5722jrw 
Suggest correction
comments
print report bad tab
3 comments total.
+1 reply
dmusician1923 10 Sep 23, 2012 03:29 PM

it's actually kinda dead on... just need to add the change/break into the chorus..

0 reply
PulpDood 85 Feb 05, 2013 11:53 PM

I reckon the bridge into the chorus goes something like this:


e|--------0-----------2--------------------------2--------------|
B|------3---3-------3---3-------3-------3------3---3-----0----2-|
G|----0-----------0-----------2-------2--------------0---0----2-|
D|-------------------------------------------------------2----2-|
A|-------------------------2-------0--------------------------0-|
E|-0-----------2----------------------------3-------------------|

0 reply
PulpDood 85 Feb 05, 2013 11:53 PM

I reckon the bridge into the chorus goes something like this:


e|--------0-----------2--------------------------2--------------|
B|------3---3-------3---3-------3-------3------3---3-----0----2-|
G|----0-----------0-----------2-------2--------------0---0----2-|
D|-------------------------------------------------------2----2-|
A|-------------------------2-------0--------------------------0-|
E|-0-----------2----------------------------3-------------------|

guest
You may want to rate the tab now too:
select rating
Wanna post a correction for this tab? Suggest correction