Oops, an error
Loading. Please wait.

What Makes You Beautiful tab

version 3
version 3

Whole song

Interactive

200,635 views 72 this week
2 commentsread comments
1 2 3 4 5
x 43
add to favorites
×
Save as Personal and add changes to this tab that will be seen only by you. Learn more ›
×
You can save this tab as Personal to edit and correct it or add notes. All changes will be seen only by you. Learn more »
launch autoscroll
font size
0
reset
how to read this tab
guitar tuner
edit
Autoscroll
slow
fast
+/-
esc
set tempo
stop
About this tab version
Credits to Nookieya for the solo tab correction. Was this info helpful? Yes No
Tuning: Standard 
Capo 5th Fret.

[Intro]
e|--------------------------------------|
B|--------------------------------------|
G|-------0--------0------0--------2-----|
D|-----0--------0------2--------0-------|
A|------------3---------------0---------|
E|---3---------------0------------------|

[Verse 1]
e|--------------------------------------|
B|--------------------------------------|
G|-------0--------0------0--------2-----| x2
D|-----0--------0------2--------0-------|
A|------------3---------------0---------|
E|---3---------------0------------------|

[Pre-Chorus](Everyone else in the room can see it....)
e|-------------------------------------------------------|
B|-------------------------------------------------------|
G|-------0--------0------0------------2------2p0---0-----|
D|-----0--------0------2------------0------------0-------|
A|------------3-------------------0----------------------|
E|---3---------------0-----------------------------------|

[Chorus]
e|--------------------------------------------|
B|--------------------------------------------|
G|--------2h4------0-------0------2-0---------| x4
D|------0--------0-------2-------0------------|
A|-------------3-------------------0----------|
E|---3-----------------0----------------------|

                     That's what makes you beautiful...
e|--------------------------------------------|
B|--------------------------------------------|
G|--------2h4------0--------------------------| 
D|------0--------0----------------------------|
A|-------------3------------------------------|
E|---3----------------------------------------|

e|--------------------------------------------------------|
B|-------1h3----------------------------------------------|
G|----------------0-------0h2----2-0----------------------|
D|-----0--------0-------2-------0-------------------------|
A|------------3-------------------0-----------------------|
E|---3----------------0-----------------------------------|

e|--------------------------------------------------------|
B|-------1h3----------------------------------------------|
G|----------------0-------0h2-----------------------------|
D|-----0--------0-------2-------0-------------------------|
A|------------3-----------------0-------------------------|
E|---3----------------0-----------------------------------|

[Verse 2]
e|--------------------------------------|
B|--------------------------------------|
G|-------0--------0------0--------2-----| x2
D|-----0--------0------2--------0-------|
A|------------3---------------0---------|
E|---3---------------0------------------|

[Pre-Chorus](Everyone else in the room can see it....)
e|-------------------------------------------------------|
B|-------------------------------------------------------|
G|-------0--------0------0------------2------2p0---0-----|
D|-----0--------0------2------------0------------0-------|
A|------------3-------------------0----------------------|
E|---3---------------0-----------------------------------|

[Chorus 2]
e|--------------------------------------------|
B|--------------------------------------------|
G|--------2h4------0-------0------2-0---------| x4
D|------0--------0-------2-------0------------|
A|-------------3-------------------0----------|
E|---3-----------------0----------------------|

                     That's what makes you beautiful...
e|--------------------------------------------|
B|--------------------------------------------|
G|--------2h4------0--------------------------| 
D|------0--------0----------------------------|
A|-------------3------------------------------|
E|---3----------------------------------------|

[Solo]
e|----------------------------------------------------|
B|---3p5---3---1h0------------------------------------|
G|---0---0---0-0----0-----2-4---4-----0-2---2-2p0-----| x2
D|--------0----------0---------0-0---------0-----0----|
A|-------------3------3-------------------------------|
E|---0------------------------3---3-------2-----------|

[Chorus]
e|-----------------|
B|-----------------|
G|----0--0--0--2---| x2
D|----0--0--2--0---|
A|-------3-----0---|
E|----3-----0------|

e|--------------------------------------------|
B|--------------------------------------------|
G|--------2h4------0-------0------2-0---------| x8
D|------0--------0-------2-------0------------|
A|-------------3-------------------0----------|
E|---3-----------------0----------------------|

e|--------------------------------------------------------|
B|-------1h3----------------------------------------------|
G|----------------0-------0h2----2-0----------------------| x2
D|-----0--------0-------2-------0-------------------------|
A|------------3-------------------0-----------------------|
E|---3----------------0-----------------------------------|

e|--------------------------------------------|
B|--------------------------------------------|
G|--------2h4------0-------0------2-0---------| x3
D|------0--------0-------2-------0------------|
A|-------------3-------------------0----------|
E|---3-----------------0----------------------|

e|--------------------------------------------|
B|--------------------------------------------|
G|--------2h4------0--------------------------| 
D|------0--------0----------------------------|
A|-------------3------------------------------|
E|---3----------------------------------------|
 


************************************

| p  Pull-off
| h  Hammer-on

************************************
Suggest correction
Creating personal tab
Creating personal tab
You can edit any tab online and save it as your Personal.

You can edit, replace or remove any tab part or add personal notes – all changes will be seen only by you.

Personal tabs can be accessed anytime from any device, even offline.
Learn more »
comments
print report bad tab
2 comments total.
+6 reply
Nookieya 10 Sep 20, 2012 04:31 PM

Nice tab but the solo is a bit wrong. It should be
e|----------------------------------------------------|
B|---3p5---3---1h0------------------------------------|
G|---0---0---0-0----0-----2-4---4-----0-2---2-2p0-----| x2
D|--------0----------0---------0-0---------0-----0----|
A|-------------3------3-------------------------------|
E|---0------------------------3---3-------2-----------|
But the rest, its awesome! Thanks for tab!

+1 reply
robi1095 10 Jan 09, 2014 04:37 PM

it's a very good tab. Thank you for posting

guest
You may want to rate the tab now too:
select rating
Wanna post a correction for this tab? Suggest correction