Oops, an error
Loading. Please wait.

When I Was Your Man Tab

81,521 views 120 this week
9 commentsread comments
1 2 3 4 5
excellent!
x 23
add to favorites
launch autoscroll
font size
0
reset
how to read this tab
guitar tuner
Tab Pro tools
  • play this tab
  • loop segment
  • change instrument
  • show fretboard
  • metronome
×
Best way to learn
"When I Was Your Man"
Autoscroll
slow
fast
+/-
esc
set tempo
stop
Contributor
When I Was Your Man - Boyce Avenue feat. Fifth Harmony
Tabbed by: Kingsley

I tabbed most of this before they uploaded it to their
YouTube page and if you watch the video some parts are 
probably different to mine, since in some parts I can't 
see what he is playing, hopefully it's the same
but it still sounds the same anyway. 

Please leave a correction if you notice any mistakes and 
i'll update it thanks.

Tuning: Standard
http://www.youtube.com/watch?v=I8tEcMjV_zE

Intro:
e|--------------------------------------|
B|------------------0-------------0-----|
G|---4---2--0---0-2-----4---2--0----2-0-|
D|--5----2--0----------5----2--0--------|
A|-3-----0------------3-----0-----------|
E|----------3------------------3----2-0-|


Verse:
e|---------------------------------------------------|
B|---------------------------------------------------|
G|-4--5----5p4--2-5-4-2-0--4-5----5p4--2-5-4-4--2-2--|
D|--------5----------------------5----------5-5--0-0-|
A|---------------------------------------------------|
E|-3--5---------2-5-3-2-0--3-5---------2-5-3----2----|
                                          

Refrain:
e|---------0h2--------|
B|-8-7-5s3------6---7-|
G|------------------7-|
D|--------------------|
A|-----------2--8---5-|
E|-0------------8-----|


Chorus:
          x2
e|--------0-----------|---------------------------0-----|-------------|
B|-8-8--7----0-0-0-3--|-8-8--7-\3-3--3h5-5--2-2---1-4-3-|---0--0------|
G|--7-7--7-7--0-0-0-0-|--7-7--7----0----0-0--0-0----0-0-|-5-0---0-2--0|
D|------0-------------|------0------------------------5-|-5-5------0--|
A|--------------------|---------------------0-----3-3---|-3-----------|
E|-8---------3-----3--|-8------------0------------------|---------2--0|


Repeat Verse

Repeat Refrain


Chorus:
          x2
e|--------0-----------|----------------------------0----------------|
B|-8-8--7----0-0-0-3--|-8-8---7-\3-3--3h5-5--2-2---1-4-0--0--0---3--|
G|--7-7--7-7--0-0-0-0-|--7-7---7----0----0-0--0-0----0-0-0-0-0-0--0-|
D|------0-------------|------0-------------------------5-----5------|
A|--------------------|----------------------0-----3-3-----------2--|
E|-8---------3-----3--|-8-------------0-----------------------------|


Bridge:
e|-------------------------------------------------------------------------|
B|-5-5-5-5--7-7-7-0--12-12--10-10--8-8--7-3--2-2-2-2--1-1-1-1--7-7-7h8-8-7-|
G|--0-0-0-0--0-0-0-0---0--0---0--0--0-0--0-0--0-0-0-0--2-2-2-2--7-7---7-7--|
D|-------------------------------------------------------------------------|
A|-3-3-3-3--5-5-5----10-12--9--9---7-7--5-2--0---0----3---3----5---5-----5-|
E|-------------------------------------------------------------------------|


Chorus/Outro:
    x2               X3
e|-------|-------|---0-----|
B|-5-7-3-|-5-7-8-|-2-1-4-3-|
G|-5-7-4-|-5-7---|-0---0-4-|
D|-----5-|-----9-|-------5-|
A|-3-5---|-3-5-7-|-0-3-3---|
E|-------|-------|---------|    
comments
print report bad tab
9 comments total. Showing first comments.
0 reply
vikske47 wrote on June 26 2013, 02:35 pm

kingsley, its musicfreakdancerap here, you did well but you make it too compicated ;)

+2 reply
vikske47 wrote on June 26 2013, 02:37 pm

Intro:
e|--------------------------------------|
B|---0--------------0---0---------0-----|
G|--0----2--0---0-2----0----2--0----2-0-|
D|-------2--0---------------2--0--------|
A|-3-----0------------3-----0-----------|
E|----------3------------------3----2-0-|

change all your 5ves ;)

0 reply
kingstahh wrote on June 26 2013, 03:01 pm

XD thats how it was originally but i changed it as thats how I saw him play it

I want to post or [tab]
guest
You may want to rate the tab now too:
select rating
Please do not post tabs as comments. Select "correction" instead!