Oops, an error
Loading. Please wait.

Yellow tab

version 3
version 3

Whole song

Interactive

15,164 views 6 this week
1 commentread comment
1 2 3 4 5
1 last vote to show rating
add to favorites
×
Save as Personal and add changes to this tab that will be seen only by you. Learn more ›
×
You can save this tab as Personal to edit and correct it or add notes. All changes will be seen only by you. Learn more »
launch autoscroll
font size
0
reset
how to read this tab
guitar tuner
edit
Autoscroll
slow
fast
+/-
esc
set tempo
stop
Author
I made some mistakes on my first tab so I combined Trey's tab and mine to make a 
better tab,,, enjoy :)

Band: Boyce Avenue - Yellow (Coldplay Cover)
Album: Influential Sessions
Year: 2009
Tabbed by: Scott Naylor

Tunning: Db Ab Db Gb B eb

Intro

Guitar 1

eb||-0-0-0-0---0-0-0-0---0-0-0-0---0-0-0-0----|
B ||-4-4-4-4h5-5-5-5-5p4-4-4-4-4h5-5-5-5-5----|
Gb||-0-0-0-0---0-0-0-0---0-0-0-0---0-0-0-0----| x1
Db||-2-2-2-2---2-2-2-2---2-2-2-2---2-2-2-2----|
Ab||-3-3-3-3---3-3-3-3---3-3-3-3---3-3-3-3----|
Db||------------------------------------------|

Guitar 2

eb||-------------------<>12-------------------|
B ||-------------------<>12-------------------|
Gb||-------------------<>12-------------------| x1
Db||------------------------------------------|
Ab||------------------------------------------|
Db||------------------------------------------|

Main Riff

Guitar 1

eb||-3-3-3-3p1-1-1-1-1-5s7-7-7-7-7s5-5-5-5---0-0-0-0---0-0-0-0---3-3-3-3p1-1-1-0-1----|
B ||-0-0-0-0---0-0-0-0---0-0-0-0---0-0-0-0---2-2-2-2p0-0-0-0-0---0-0-0-0---0-0-0-0----|
Gb||-0-0-0-0---0-0-0-0---0-0-0-0---0-0-0-0---2-2-2-2p0-0-0-0-0---0-0-0-0---0-0-0-0----| x1
Db||-2-2-2-2---2-2-2-2---0-0-0-0---0-0-0-0---3-3-3-3---3-3-3-3---0-0-0-0---0-0-0-0----|
Ab||-3-3-3-3---3-3-3-3-----------------------3-3-3-3---3-3-3-3---3-3-3-3---3-3-3-3----|
Db||----------------------------------------------------------------------------------|

Guitar 2

eb||-0-0-0-0---0-0-0-0---0-0-0-0---0-0-0-0---0-0-0-0---0-0-0-0---0-0-0-0---0-0-0-0----|
B ||-0-0-0-0---0-0-0-0---0-0-0-0---0-0-0-0---0-0-0-0---0-0-0-0---0-0-0-0---0-0-0-0----|
Gb||-0-0-0-0---0-0-0-0---4-4-4-4h5-5-5-5-5---2-2-2-2p0-0-0-0-0---0-0-0-0---0-0-0-0----| x1
Db||-2-2-2-2h3-3-3-3-3---5-5-5-5---5-5-5-5---3-3-3-3---3-3-3-3---2-2-2-2h3-3-3-3-3----|
Ab||-3-3-3-3---3-3-3-3---5-5-5-5---5-5-5-5---3-3-3-3---3-3-3-3---3-3-3-3---3-3-3-3----|
Db||----------------------------------------------------------------------------------|

Verse 1

Guitar 1

eb||------------------------------------------------------------------------|
B ||------------------------------------------------------------------------|
Gb||-0-0-0-0-0-0-0-0---4-4-4-4-4-4-4-4---2-2-2-2-0-0-0-0--------------------| x3
Db||-2-2-2-2-2-2-2-2---5-5-5-5-5-5-5-5---3-3-3-3-3-3-3-3--------------------|
Ab||-3-3-3-3-3-3-3-3---5-5-5-5-5-5-5-5---3-3-3-3-3-3-3-3--------------------|
Db||------------------------------------------------------------------------|
     x x x x x x x x   x x x x x x x x   x x x x x x x x

Guitar 2 

eb||-0^----------------0^----------------0^---------------------------------|
B ||-0^----------------0^----------------0^---------------------------------|
Gb||-0^----------------4^----------------2^---------------------------------| x3
Db||-2^----------------5^----------------3^---------------------------------|
Ab||-3^----------------5^----------------3^---------------------------------|
Db||------------------------------------------------------------------------|

Pre-Chours

Guitar 1

eb||-0--0--0--0--0--0--0--0-----|
B ||-0--0--0--0--0--0--0--0-----|
Gb||-0--0--0--0--0--0--0--0-----| x1
Db||-2--2--3--3--2--2--2--2-----|
Ab||-3--3--3--3--3--3--3--3-----|
Db||----------------------------|

Guitar 2

eb||----------------------------|
B ||-4--4--5--5--4--4--4--4-----|
Gb||--5--5--5--5--5--5--5--5----| x1
Db||----------------------------|
Ab||----------------------------|
Db||----------------------------|


Chours

Guitar 1

eb||-0--0--0--0--0--0--0--0----|    |-0--0--0~----|
B ||-0--0--0--0--0--0--0--0----|    |-0--0--0~----|
Gb||-2--2--2--2--5--5--4--4----| x3 |-0--0--0~----| x1
Db||-3--3--3--3--7--7--5--5----|    |-2--2--0~----|
Ab||-3--3--3--3--7--7--5--5----|    |-3--3--3~----|
Db||---------------------------|    |-------------|

Guitar 2

eb||-8--8--8--8--12-12-10-10---|    |-8-----------|
B ||--7--7--7--7--12-12-12-12--|    |---9-7-------|
Gb||---------------------------| x3 |-------9~----| x1
Db||---------------------------|    |-------------|
Ab||---------------------------|    |-------------|
Db||---------------------------|    |-------------|


Main Riff x1


Verse x2


Pre-Chorus x1


Chorus x1


Main Riff x2


Outro

eb||-3-3-3-3p1-1-1-1-1-5s7-7-7-7-7s5-5-5-5---0-0-0-0---0-0-0-0----|
B ||-0-0-0-0---0-0-0-0---0-0-0-0---0-0-0-0---2-2-2-2p0-0-0-0-0----|
Gb||-0-0-0-0---0-0-0-0---0-0-0-0---0-0-0-0---2-2-2-2p0-0-0-0-0----| x1
Db||-2-2-2-2---2-2-2-2---0-0-0-0---0-0-0-0---3-3-3-3---3-3-3-3----|
Ab||-3-3-3-3---3-3-3-3-----------------------3-3-3-3---3-3-3-3----|
Db||--------------------------------------------------------------|

Guitar 2

eb||-0-0-0-0---0-0-0-0---0-0-0-0---0-0-0-0---0-0-0-0---0-0-0-0----|
B ||-0-0-0-0---0-0-0-0---0-0-0-0---0-0-0-0---0-0-0-0---0-0-0-0----|
Gb||-0-0-0-0---0-0-0-0---4-4-4-4h5-5-5-5-5---2-2-2-2p0-0-0-0-0----| x1
Db||-2-2-2-2h3-3-3-3-3---5-5-5-5---5-5-5-5---3-3-3-3---3-3-3-3----|
Ab||-3-3-3-3---3-3-3-3---5-5-5-5---5-5-5-5---3-3-3-3---3-3-3-3----|
Db||--------------------------------------------------------------|


Guitar 1 & 2

eb||-0-0-0-0-0-0-0-0--0-0-0-0-0-0-0-0--0~----|
B ||-0-0-0-0-0-0-0-0--0-0-0-0-0-0-0-0--0~----|
Gb||-0-0-0-0-0-0-0-0--7-7-7-7-7-7-7-7--2~----| x1
Db||-2-2-2-2-2-2-2-2--8-8-8-8-8-8-8-8--3~----|
Ab||-3-3-3-3-3-3-3-3--8-8-8-8-8-8-8-8--3~----|
Db||------------------6-6-6-6-6-6-6-6--------| I'm not sure he actually plays on the 
                                               6th fret or if he just mutes the note.
  
   p - Pull off 
   h - Hammer on
   s - Slide
   x - Palm mute
   ^ - Rake
   ~ - Let ring
   

     Feel free to leave me feedback on the tab at scotty_naylor@hotmail.com

     Thanks
Suggest correction
Creating personal tab
Creating personal tab
You can edit any tab online and save it as your Personal.

You can edit, replace or remove any tab part or add personal notes – all changes will be seen only by you.

Personal tabs can be accessed anytime from any device, even offline.
Learn more »
Give kudos to tab author, rate the tab!
1 2 3 4 5
comments
print report bad tab
1 comment total.
0 reply
riazdocrat 145 Jun 29, 2010 12:55 PM

Great tab dude, just one thing, on the outro, instead of the second last chord being 688700, it sounds much nicer with 588700, the 6 on the low E (or in this case Db) sounds really off.

Apart from that, good job!! I love this song!

guest
You may want to rate the tab now too:
select rating
Wanna post a correction for this tab? Suggest correction