Oops, an error
Loading. Please wait.

5 Minutes To Midnight Tab

14,062 views 6 this week
3 commentsread comments
1 2 3 4 5
please rate
add to favorites
launch autoscroll
font size
0
reset
how to read this tab
guitar tuner
Tab Pro tools
  • play this tab
  • loop segment
  • change instrument
  • show fretboard
  • metronome
×
Best way to learn
"5 Minutes To Midnight"
Autoscroll
slow
fast
+/-
esc
set tempo
stop
Contributor
Difficulty
intermediate
a hopefully accurate tab of 5 Minutes To Midnight, ill let you be the judge of 
that. hope you guys like it:) Please rate and comment!

Intro
Guitar 1
e-------------|
B-------------|
G---776677----|
D---------77--|  x12
A-------------|
E-------------|

Guitar 2(comes in when intro is played the 5th time)
e------------------------------------------------------------------|
B------------------------------------------------------------------|
G--7777777777777777------------------------------------------------|
D--7777777777777777-7777777777777777-9999999999999999-5--9--7--X5--| 
A--5555555555555555-7777777777777777-9999999999999999-5--9--7--X5--|
E-------------------5555555555555555-7777777777777777-3--7—-5--X3--|

Verse
Guitar 1
e----------55---|
B---------------|
G---776677------|
D---------------|  x8
A---------------|
E---------------|
(Palm Muted)

Guitar 2
e-----------------------------------------------------------------|
B-----------------------------------------------------------------|
G--7777777777777777-----------------------------------------------|
D--7777777777777777-7777777777777777-9999999999999999-555555555555| 2X
A--5555555555555555-7777777777777777-9999999999999999-555555555555|
E-------------------5555555555555555-7777777777777777-333333333333|
PM ................ ................ ................ ............

Guitar 1 plays this when the verse is repeated the 2nd time
e-------------------------------|
B-------------------------------|
G---11-------9----------7-------|
D---12-(x16)-11-(x16)---9-(x16)-|  
A-------------------------------|
E-------------------------------|

Guitar 1
e----------55---|
B---------------|
G---776677------|
D---------------|  x2
A---------------|
E---------------|

Pre-Chorus
Guitar1
e------------------------------------------------------|
B------------------------------------------------------|
G--777777-99-1414-7777----------------777777-99-1414---|
D--XXXXXX-XX-X-X--XXXX-----7-----7----XXXXXX-XX—X-X----| 
A--555555-77-1212-5555-4-5---4-5--4—5-555555-77—1212---|
E------------------------------------------------------|

Guitar2
e-------------------------------------|
B-------------------------------------|
G-------------------------------------|
D--44-4---55-5---77-7-7-77------------| 
A--44-4---55-5---77-7-7-77------------|
E--22-2---33-3---55-5-5-55------------|
   ..     ..     ..   .

e--------------------|
B--------------------|
G--7777777777777777--|
D--XXXXXXXXXXXXXXXX--| 
A--5555555555555555--|
E--------------------|

Chorus(Both Guitars)
e-----------------------------------------------------------------|
B-----------------------------------------------------------------|
G--7777777777777777-----------------------------------------------|
D--7777777777777777-7777777777777777-9999999999999999-555555555555|
A--5555555555555555-7777777777777777-9999999999999999-555555555555|
E-------------------5555555555555555-7777777777777777-333333333333|
 
e------------------------------------------------------------|
B------------------------------------------------------------|
G--7777777777777777------------------------------------------|
D--7777777777777777-7777777777777777-9999999999999999-5-9-7--|
A--5555555555555555-7777777777777777-9999999999999999-5-9-7--|
E-------------------5555555555555555-7777777777777777-3-7-5--|
 
Guitar 1
e---------------|
B---------------|
G---776677------|
D---------77----|  x2
A---------------|
E---------------|

Repeat Verse
Repeat Pre-Chorus
Repeat Chorus

Bridge(Both Guitars)
e---------------------------------------------------------------------|
B---------------------------------------------------------------------|
G—--------------------------------------------------------------------|
D--7777777777777777-5555555555555555-999999-777-7-7-5555555555555555--|
A--7777777777777777-5555555555555555-999999-777-7-7-5555555555555555--|
E--5555555555555555-3333333333333333-777777-555-5-5-3333333333333333--|

Guitar 1 plays this instead of the last note(G)
e----------------------|
B----------------------|
G---9999999999999999---|
D---1212121212121212---|  
A----------------------|
E----------------------|

Both Guitars
e---------------------------------------------------------------------|
B---------------------------------------------------------------------|
G—--------------------------------------------------------------------|
D--2222222222222222-5555555555555555-999999-777-7-7-5555555555555555--|
A--2222222222222222-5555555555555555-999999-777-7-7-5555555555555555--|
E--0000000000000000-3333333333333333-777777-555-5-5-3333333333333333--|

Guitar 1 plays this instead of the last note(G)
e-------------------------------------|
B-----7-8-10-10---7-8-10-10---7-8-10--|
G-------------------------------------|
D-------------------------------------| 
A-------------------------------------|
E-------------------------------------|


Guitar 2
e-----|
B-----|
G--7--|
D--X--| x39
A--5--|
E-----|

Guitar 1
e---------------------------------------|
B---------------------------------------|
G---11-------9----------7-------6-------|
D---12-(x16)-11-(x16)---9-(x16)-7-X(16)-|  
A---------------------------------------|
E---------------------------------------|

Repeat Chorus 2X

Guitar 1 plays this when the chorus is repeated the 2nd time
e---------------|
B---------------|
G---776677------|
D---------77----|  x8
A---------------|
E---------------|

End On
e-------|
B-------|
G---7---|
D---7---| 
A---5---|
E-------|

comments
We did not receive enough feedback on this tab! Please rate:
print report bad tab
1 2 3 4 5
3 comments total.
0 reply
aznricyboy wrote on March 30 2009, 06:24 pm

Dang, I was gonna write this, but you beat me to it xD
It's probably the most accurate tab on here. Nice job. There are a couple things I'd like to point out:

1.) The pre-chorus is a bit off. It should be:
e------------------------------------------------------|
B------------------------------------------------------|
G--777777-99-1414-7777----------------777777-99-1414---|
D--XXXXXX-XX-X-X--XXXX-----7-----7----XXXXXX-XX—X-X----|
A--555555-77-1212-5555-4-5---4-5--4—5-555555-77—1212---|
E------------------------------------------------------|

2.) The last part of the bridge sounds wrong. I think it's:
e-------------------------------------|
B-----7-8-10-10---7-8-10-10---7-8-10--|
G-------------------------------------|
D-------------------------------------|
A-------------------------------------|
E-------------------------------------|

But again, nice job :)

0 reply
swart wrote on August 10 2009, 01:27 pm

thnx dude :)

0 reply
lovedrunk22 wrote on October 31 2009, 06:34 pm

im going to be straight up with you. the entire tab is wrong. boys like girls plays a good 80% at least of there album in open d tuning. they stated this fact in a how to video on aol music sessions. that makes this tab the complete opposite of useful. sorry dude

I want to post or [tab]
guest
You may want to rate the tab now too:
select rating
Please do not post tabs as comments. Select "correction" instead!