Oops, an error
Loading. Please wait.

Broken Man Tab

version 3
version 3

Whole song

6,898 views 1 this week
1 commentread comment
1 2 3 4 5
excellent!
x 3
add to favorites
launch autoscroll
font size
0
reset
how to read this tab
guitar tuner
Autoscroll
slow
fast
+/-
esc
set tempo
stop
Help us to improve Ultimate-Guitar.com Take our survey!
×
Author
Armor01 222
Just putting it up the way they play it in open tuning.

-On the chord parts I'm sure you can figure out the strumming on your own, just
giving you the chords.


Okay, the beginning is a sample, because I have seen them do it live and Martin
or Paul don't play it.

But if you want to have fun with it and play it anyway here are the notes.

D---0---0-----0---0------0---0-0---- 0----0-0-------0----0-0--|
A-----0---0-0---0------0--0---7-----0-0----5------0--0----1---|
F#-------------------7-----7------5-----5-------1------1------|
D-------------------------------------------------------------|
A-------------------------------------------------------------|
D-------------------------------------------------------------|


Verse 1
 "I wanna scream..."
D--0---0-----0---0-----|
A--0---0--0--0---0--0--|
F#-8------7---------7--|2x Played with intro sample
D--7---7-----9---5-----|
A--5---7-----9---5-----|
D------7-----9---5-----|


Pre-Chorus (palm muted)

D-------------------------|
A-------------------------|
F#------------------------|
D-------------------------|
A--4-----5-----4-----5----|
D--4-x8--5-x8--4-x8--5-x8-|

Chorus 1 (Guitar 1)
 "I won't let you..."
D--0---0---0------0-0--|             D--0--|
A--0---0---0------0-0--|             A--0--|
F#---------------------|2x    End on F#----|
D--0---9---5---4--5-7--|             D--0--|
A--0---9---5---4--5-7--|             A--0--|
D--0---9---5---4--5-7--|             D--0--|


Chorus 1 (Guitar 2)

D------------12--------------------12-----12---------12-------------12----12--|
A---9h10-9h10---10-9h10-9h10-9h10-9---9h10---9h10p9-9----9h10p9-9h10--10-9----|
F#----------------------------------------------------------------------------|2x
D-----------------------------------------------------------------------------|
A-----------------------------------------------------------------------------|
D-----------------------------------------------------------------------------|
 -I know it's really complicated but it's right.(Just listen closely)


Verse 2

 "I wanna run..."
D--0---0-----0---0-----|
A--0---0--0--0---0--0--|
F#-8------7---------7--|2x Played with intro sample
D--7---7-----9---5-----|
A--5---7-----9---5-----|
D------7-----9---5-----|

Pre-Chorus (open)

D-------------------------|
A-------------------------|
F#------------------------|
D-------------------------|
A--4-----5-----4-----5----|
D--4-x8--5-x8--4-x8--5-x8-|


Chorus 2(Guitar 1)
 "I won't let you..."
D--0---0---0------0-0--|
A--0---0---0------0-0--|
F#---------------------|2x
D--0---9---5---4--5-7--|
A--0---9---5---4--5-7--|
D--0---9---5---4--5-7--|


Chorus 2 (Guitar 2)

D------------12--------------------12-----12---------12-------------12----12--|
A---9h10-9h10---10-9h10-9h10-9h10-9---9h10---9h10p9-9----9h10p9-9h10--10-9----|
F#----------------------------------------------------------------------------|4x
D-----------------------------------------------------------------------------|
A-----------------------------------------------------------------------------|
D-----------------------------------------------------------------------------|
 -I know it's really complicated but it's right.(Just listen closely)

Bridge (Guitar 1)

 -palm muted the first two times, let the chords ring the last time
D-----------------|
A-----------------|
F#----------------|3x
D--0---2---9---5--|
A--0---2---9---5--|
D--0---2---9---5--|


Bridge (Guitar 2)

 -come in after first time, don't play last time
D----------------------|
A----------------------|
F#---------------------|
D----------------------|
A--9-9-9-9-9-9-9h10p9--|
D----------------------|

End Chorus (Guitar 1)
 "I won't let you..."
D--0---0---0------0-0-0----------0---0---0------0-0-0--|
A--0---0---0------0-0-0--9h10p9--0---0---0------0-0-0--|
F#-----------------------------------------------------|
D--0---9---5---4--5-5-5----------0---9---5---4--5-5-5--|
A--0---9---5---4--5-5-5----------0---9---5---4--5-5-5--|
D--0---9---5---4--5-5-5----------0---9---5---4--5-5-5--|

continued D--0---0---0---0--|           D------0--|
          A--0---0---0---0--|           A------0--|
          F#----------------|2x  End on F#--------| (Guitar 1 & 2)
          D--0---2---9---5--|           D--4-4-5--|
          A--0---2---9---5--|           A--4-4-5--|
          D--0---2---9---5--|           D--4-4-5--|

End Chorus (Guitar 2)

D------------12--------------------12-----12---------12-------------12----12--|
A---9h10-9h10---10-9h10-9h10-9h10-9---9h10---9h10p9-9----9h10p9-9h10--10-9----|
F#----------------------------------------------------------------------------|8x
D-----------------------------------------------------------------------------|
A-----------------------------------------------------------------------------|
D-----------------------------------------------------------------------------|
 -I know it's really complicated but it's right.(Just listen closely)

End of 2nd time, then continue the last 6 times
D--5h6p5--|
A---------|
F#--------| harmony with first guitar
D---------|
A---------|
D---------|


Thanks, and enjoy

Let me know what you think: SLeinenbach01@yahoo.com
Suggest correction new What's this?
You can suggest a correction to this tab. Community and Mods will review your correction and vote to approve or reject it.
comments
We did not receive enough feedback on this tab! Please rate:
print report bad tab
1 2 3 4 5
1 comment total.
0 reply
royturner23 3,160 wrote on July 6 2009, 01:15 pm

D-------------------------|
A-------------------------|
F#------------------------|
D-------------------------|
A--4-----5-----4-----5----|
D--4-x8--5-x8--4-x8--5-x8-|

I'm pretty sure the first pre-chorus is

D||-----------------------------------||
A||o---------------------------------o||
F#|-----------------------------------||
D||-----------------------------------||
A||o---------------------------------o||
D||-4-4-4-4-4-4-4-4-4-5-5-5-5-5-5-5-5-||
pm- - - - - - - - - - - - - - - -

guest
You may want to rate the tab now too:
select rating
Please do not post tabs as comments. Select "correction" instead!