Oops, an error
Loading. Please wait.

Dance Hall Drug Tab

version 1
version 1

Whole song

10,964 views 1 this week
2 commentsread comments
1 2 3 4 5
x 6
add to favorites
launch autoscroll
font size
0
reset
how to read this tab
guitar tuner
Autoscroll
slow
fast
+/-
esc
set tempo
stop
Help us to improve Ultimate-Guitar.com Take our survey!
×
 Heres The Tab To Dance Hall Drug, Since Nobody Else Tabbed It Here it Is

INTRO
|--------------------------------|
|--------------------------------|
|--7--7--7--7--7--7--7-5-7-5-----|
|--7--7--7--7--7--7--7-5-5-5 X 2-|
|--5--5--5--5--5--5--5-3-5-3-----|
|--------------------------------|


|----------------------------------|
|----------------------------------|
|------------9----------12---------|
|------2-----9-----5----12----7----|
|------2-x7--7-x7--5-x7-10-x7-7-x7-|
|------0-----0-----3----------5----|

Chorus
|------------------------------------|
|------------------------------------|
|------------------------------------|
|--7-----9---------------------------|
|--7x16--9x16-5----7-----------------|
|--5-----7----5x16-7x16--------------|
|-------------3----5-----------------|

And Then Repeat ,
This is my First Tab so Please Tell me if You have any corrections

Fullmetal_Rocker2000@Yahoo.com
Suggest correction
comments
print report bad tab
2 comments total.
0 reply
hendrixfreak93 831 Sep 29, 2007 10:42 AM

looks good to me, but you forgot that little riff during the intro and verse :D still, 4 stars.

+1 reply
QLuenZ 31 Jan 04, 2009 04:27 PM

I think at the INTRO it should be like this :
|-------------------------------------------------------|
|-------------------------------------------------------|
|--7--7--7--7--7--7--7-6-7-6-7--7--7--7--7--7--7-6-7-6--|
|--7--7--7--7--7--7--7-6-5-6-7--7--7--7--7--7--7-6-7-6--|
|--5--5--5--5--5--5--5-4-5-4-5--5--5--5--5--5--5-4-5-4--|
|-------------------------------------------------------|

|-------------------------------------------------------|
|-------------------------------------------------------|
|--4--4--4--4--4--4--4-3-4-3-4--4--4--4--4--4--4-3-4-3--|
|--4--4--4--4--4--4--4-3-4-3-4--4--4--4--4--4--4-3-4-3--|
|--2--2--2--2--2--2--2-1-2-1-2--2--2--2--2--2--2-1-2-1--|
|-------------------------------------------------------|

And at the Chorus :
|-------------------------------------|
|-------------------------------------|
|--7----------------------------------|
|--7x16--9----12----7-----------------|
|--5-----9x16-12x16-7x16--------------|
|--------7----10----5-----------------|

guest
You may want to rate the tab now too:
select rating
Wanna post a correction for this tab? Suggest correction