Oops, an error
Loading. Please wait.

Five Minutes To Midnight Tab

version 1
version 1
30,513 views 9 this week
15 commentsread comments
1 2 3 4 5
x 10
add to favorites
launch autoscroll
font size
0
reset
how to read this tab
guitar tuner
Autoscroll
slow
fast
+/-
esc
set tempo
stop
Help us to improve Ultimate-Guitar.com Take our survey!
×
Author
Difficulty
intermediate
                      Five Minutes To Midnight
                   |This one has to have 2 people| 
                   |or it sounds dumb 91% correct|

Pre-Intro
e-----------------------------------|
B-----------------------------------|
G---776677--776677--776677--776677--|
D---------77------77------77------77|
A-----------------------------------|
E-----------------------------------|

Intro 
Guitar 1
e-----------------------------------|\
B-----------------------------------| \
G---776677--776677--776677--776677--|  \
D---------66------66------66------66|  / X2
A-----------------------------------| /
E-----------------------------------|/
Guitar 2
e-----------------------------------------------------------------|
B-----------------------------------------------------------------|
G--7777777777777777------------------9999999999999999-------------|
D--7777777777777777-7777777777777777-9999999999999999-5---9---7---| X1
A--5555555555555555-7777777777777777-7777777777777777-5---9---7---|
E-------------------5555555555555555------------------3~--7~--5~--|

Verse
e-----------------------------------------------------------------|
B-----------------------------------------------------------------|
G--7777777777777777------------------9999999999999999-777777777777|
D--7777777777777777-7777777777777777-9999999999999999-777777777777| X2
A--5555555555555555-7777777777777777-7777777777777777-555555555555|
E-------------------5555555555555555------------------------------|
Palm Mute********** **************** **************** ************

Pre-Chorus
e---------------------|\
B---------------------| \
G-------9999-777777777|  \
D--7777-9999-555555555|  / X2
A--7777-7777-555555555| /
E--5555---------------|/
 "You know you wanna...
Chorus
e-----------------------------------------------------------------|
B-----------------------------------------------------------------|
G--7777777777777777------------------9999999999999999-777777777777|
D--7777777777777777-7777777777777777-9999999999999999-777777777777| X2
A--5555555555555555-7777777777777777-7777777777777777-555555555555|
E-------------------5555555555555555------------------------------|
 "Turn it up. It's Five Minutes To Midnight...

Verse 2
Verse
e-----------------------------------------------------------------|
B-----------------------------------------------------------------|
G------------------------------------9999999999999999-777777777777|
D--5----------------7777777777777777-9999999999999999-777777777777| X2
A--5---------------7777777777777777-7777777777777777-555555555555|
E--3----------------5555555555555555------------------------------|
Palm Mute           **************** **************** ************
     "Like air...

Pre-Chorus
e---------------------|\
B---------------------| \
G-------9999-777777777|  \
D--7777-9999-555555555|  / X2
A--7777-7777-555555555| /
E--5555---------------|/
 "You know you wanna...
Chorus
e-----------------------------------------------------------------|
B-----------------------------------------------------------------|
G--7777777777777777------------------9999999999999999-777777777777|
D--7777777777777777-7777777777777777-9999999999999999-777777777777| X2
A--5555555555555555-7777777777777777-7777777777777777-555555555555|
E-------------------5555555555555555------------------------------|
 "Turn it up. It's Five Minutes To Midnight...

Riff
e-----------------------------------------------------------------|
B-----------------------------------------------------------------|
G--7777777777777777-----------------------------------------------|
D--7777777777777777-7777777777777777-9--9-7--9-5------------------|X2
A--5555555555555555-7777777777777777-9--9-7--7-5------------------|
E-------------------5555555555555555-7--7-5--5-3------------------|
 "And when the clock strikes 12...
e---------------------|\
B---------------------| \
G--7-7-77-7-7-7777----|  \
D--7-7-77-7-7-7777----|  / X2
A---------------------| /
E---------------------|/
Chorus
e-----------------------------------------------------------------|
B-----------------------------------------------------------------|
G--7777777777777777------------------9999999999999999-777777777777|
D--7777777777777777-7777777777777777-9999999999999999-777777777777| X2
A--5555555555555555-7777777777777777-7777777777777777-555555555555|
E-------------------5555555555555555------------------------------|
 "Turn it up. It's Five Minutes To Midnight...
Suggest correction
comments
print report bad tab
15 comments total. Showing first comments.
+1 reply
kickapoo92 182 Apr 12, 2007 03:10 PM

In the pre intro and the intro the
e-----------------------------------|
B-----------------------------------|
G---776677--776677--776677--776677--|
D---------66------66------66------66|
A-----------------------------------| should be
E-----------------------------------|

e-----------------------------------|
B-----------------------------------|
G---776677--776677--776677--776677--|
D---------77------77------77------77|
A-----------------------------------|
E-----------------------------------|

0 reply
bexxxoxo 10 Jun 21, 2007 08:59 PM

It's supposed to be in open tuning

0 reply
Stumpo 20 Jul 10, 2007 06:44 AM

I think the chorus's E note should actually be a B on the a string.
Just my 2 cents
Its good though.
I commend anyone who bothers to tab =D

guest
You may want to rate the tab now too:
select rating
Wanna post a correction for this tab? Suggest correction