Oops, an error
Loading. Please wait.

Five Minutes To Midnight Tab

version 3
version 3
8,692 views 1 this week
8 commentsread comments
1 2 3 4 5
accurate
x 4
add to favorites
launch autoscroll
font size
0
reset
how to read this tab
guitar tuner
Autoscroll
slow
fast
+/-
esc
set tempo
stop
Help us to improve Ultimate-Guitar.com Take our survey!
×
Difficulty
intermediate
Here it is... this is my first tab.. it is in DADF#AD

Intro

Guitar 1
|---------------------|
|---55-44-55----------|
|------------33-------|   Repeat as needed
|---------------------|
|---------------------|
|---------------------|

Guitar 2
|-0-----------------------|
|-0-----------------------|
|-0-----------------------|
|-0---7--9--5--9--7--x5---|
|-0---7--9--5--9--7--x5---|
|-0---7--9--5--9--7--x5---|


Verse

Guitar 1

|----------------------|
|---55-44-55-----------|
|------------33--------|   Repeat as needed
|----------------------|
|----------------------|
|----------------------|
PM---------------------|

Guitar 2

|------------------------------|
|------------------------------|
|------------------------------|
|--7---------------------------|
|--5-16x--7-----9------5-------|
|---------7-16x-9-16x--5-16x---|
 PM----------------------------|


Guitar 3

|------|
|---5--|
|---x--  many times
|---x--
|---5--|
|------|


Pre-Chorus

Guitar 1

|--------------|
|---5-5-5-5----|
|---x-x-x-x----|
|---x-x-x-x----|
|---5-5-5-5----|
|--------------|

|----------------|
|--55-44-55-55---|
|--xx-xx-xx-xx---|
|--xx-xx-xx-xx---|
|--55-44-55-00---|
|----------------|

Chorus

Guitars 1&2

|-0--------------0------------------|
|-0--------------0------------------|
|-0--------------0------------------|
|-0---7--9--5----0-7-9-5-9--7--55---|
|-0---7--9--5----0-7-9-5-9--7--55---|
|-0---7--9--5----0-7-9-5-9--7--55---|

Repeat Verse

Repeat Pre-Chorus

Repeat Chorus

Guitar 1... I can't figure out...

Guitar 2

|-0--------------0---------|
|-0--------------0---------|
|-0--------------0---------|
|-0---7--9--7-55-0---------| 2x
|-0---7--9--7-55-0---------|
|-0---7--9--7-55-0---------|

Final Chorus

|------|
|---5--|
|---x--  many times
|---x--
|---5--|
|------|

Guitar 1

|---------------------|
|---55-44-55----------|
|------------33-------|   Repeat as needed
|---------------------|
|---------------------|
|---------------------|

Guitar 2

|-0-------------|
|-0-------------|
|-0-------------|
|-0---7--9--5---| 3x
|-0---7--9--5---|
|-0---7--9--5---|

|-0---------------0~--|
|-0---------------0~--|
|-0---------------0~--|
|-0-7-9-5-9--7--5-0~--|
|-0-7-9-5-9--7--5-0~--|
|-0-7-9-5-9--7--5-0~--|
Suggest correction
What's this?
You can suggest a correction to this tab. Community and Mods will review your correction and vote to approve or reject it.
comments
print report bad tab
8 comments total. Showing first comments.
+2 reply
Arotai_hoody 37 wrote on September 25 2007, 03:19 pm

nice.
but I think the intro is played like this. If you watch the AOL video you see him play it.

|---00-00-00-00-------|
|---55-44-55-00-------|
|---------------------|
|---------------------|
|---------------------|
|---------------------|

0 reply
SweetRevenge200 18 wrote on October 22 2007, 03:01 am

well person above me may be right but i think that in the intro instead of doing 3rd fret on the b string you should do g string 4th fret.
my fingers are tiny so it works out better that way lol.

0 reply
lorrythebassguy 1,039 wrote on June 14 2008, 09:31 am

its a good start!
the intro correction above sounds better,
great start!

guest
You may want to rate the tab now too:
select rating
Please do not post tabs as comments. Select "correction" instead!