Oops, an error
Loading. Please wait.

Five Minutes To Midnight Tab

version 4
version 4
21,151 views 9 this week
5 commentsread comments
1 2 3 4 5
x 6
add to favorites
launch autoscroll
font size
0
reset
how to read this tab
guitar tuner
Autoscroll
slow
fast
+/-
esc
set tempo
stop
Help us to improve Ultimate-Guitar.com Take our survey!
×
Author
Tabbers playing skills
intermediate +
-------------------------------------------------------------------------------
                 FIVE MINUTES TO MIDNIGHT – Boys Like Girls
-------------------------------------------------------------------------------
Tabbed By: 0GibsonLesPaul0
Email: -----

Tuning*: Standard

    *You can be in “Dropped D” and play all of the “D” power chords as open D, A, and D.

_______________________________________________________________________________
INTRO
   ________________________________________________________
  |*fill #1*  (keep repeating throughout intro)            |
  |                                                        |
  |                                                        |
  |  e|-------------------------------------------------|  |
  |  B|-------------------------------------------------|  |
  |  G|-7-7-6-6-7-7-----7-7-6-6-7-7-----7-7-6-6-7-7-----|  |
  |  D|-----0-0-----7-7-----0-0-----7-7-----0-0-----7-7-|  |
  |  A|-------------------------------------------------|  |
  |  E|-------------------------------------------------|  |
  |________________________________________________________|


e|---------------------------------------------------—----------|
B|---------------------------------------------------—----------|
G|-7-7-7-7-7-7-7-7-2-2-2-2-2-2-2-2-4-4-4-4-4-4-4-4----4-2---2---|
D|-7-7-7-7-7-7-7-7-2-2-2-2-2-2-2-2-4-4-4-4—4-4-4-4--5-4-2---2-5\|
A|-5-5-5-5-5-5-5-5-0-0-0-0-0-0-0-0-2-2-2-2-2-2-2-2--5—2—0---0-5\|
E|--------------------------------------------------3—--------3\|


VERSE

  __________________________________________________________
  |*fill #2*  (keep repeating throughout verse)            |
  |                                                        |
  |                                                        |
  |  e|-------------------------------------------------|  |
  |  B|-------------------------------------------------|  |
  |  G|-7-7-6-6-7-7-----7-7-6-6-7-7-----7-7-6-6-7-7-----|  |
  |  D|-----0-0-----7-7-----0-0-----7-7-----0-0-----7-7-|  |
  |  A|-------------------------------------------------|  |
  |  E|-------------------------------------------------|  |
  |                                                        |
  |P.M.-------------------------------------------------|  |
  |________________________________________________________|

e|------------------------------------------------------—----------|
B|--------------------------------------------------—--------------|
G|-7-7-7-7-7-7-7-7-2-2-2-2-2-2-2-2-4-4-4-4-4-4-4-4-----------------|
D|-7-7-7-7-7-7-7-7-2-2-2-2-2-2-2-2-4-4-4-4—4-4-4-4-5-5-5-5-5-5-5-5-|
A|-5-5-5-5-5-5-5-5-0-0-0-0-0-0-0-0-2-2-2-2-2-2-2-2-5—5-5-5-5-5-5-5-|
E|-------------------------------------------------3—3-3-3-3-3-3-3-|

e|---------------------------------------------------—|
B|---------------------------------------------------—|
G|-7-7-7-7-7-7-7-7-2-2-2-2-2-2-2-2-4-4-4-4-4-4-4-4----|
D|-7-7-7-7-7-7-7-7-2-2-2-2-2-2-2-2-4-4-4-4—4-4-4-4—-5\|
A|-5-5-5-5-5-5-5-5-0-0-0-0-0-0-0-0-2-2-2-2-2-2-2-2—-5\|
E|--------------------------------------------------3\|


PRE CHORUS

  ____________________
  |                  |
  |*fill #3*         |
  |                  |
  |  e|-----------|  |
  |  B|-----------|  |
  |  G|-----------|  |
  |  D|-----------|  |
  |  A|4h5-5--4h5/|  |
  |  E|-----------|  |
  |__________________|
  


                                            #3
e|----------------------------------------------------------------------------|
B|----------------------------------------------------------------------------|
G|-------------------------------------------7-7-7-7--------------------------|
D|-5-5-5-5-7-7-7-7-9-9-9-9---5-5-5-5-7-7-7-7-7-7-7-7--5-5-5-5-7-7-7-7-9-9-9-9-|
A|-5-5-5-5-7-7-7-7-9-9-9-9---5-5-5-5-7-7-7-7-5-5-5-5--5-5-5-5-7-7-7-7-9-9-9-9-|
E|-3-3-3-3-5-5-5-5-7-7-7-7---3-3-3-3-5-5-5-5----------3-3-3-3-5-5-5-5-7-7-7-7-|


CHORUS

e|------------------------------------------------------—----------|
B|--------------------------------------------------—--------------|
G|-7-7-7-7-7-7-7-7-2-2-2-2-2-2-2-2-4-4-4-4-4-4-4-4-----------------|
D|-7-7-7-7-7-7-7-7-2-2-2-2-2-2-2-2-4-4-4-4—4-4-4-4-5-5-5-5-5-5-5-5-|
A|-5-5-5-5-5-5-5-5-0-0-0-0-0-0-0-0-2-2-2-2-2-2-2-2-5—5-5-5-5-5-5-5-|
E|-------------------------------------------------3—3-3-3-3-3-3-3-|

e|---------------------------------------------------—----------|
B|---------------------------------------------------—----------|
G|-7-7-7-7-7-7-7-7-2-2-2-2-2-2-2-2-4-4-4-4-4-4-4-4----4-2---2---|
D|-7-7-7-7-7-7-7-7-2-2-2-2-2-2-2-2-4-4-4-4—4-4-4-4--5-4-2---2-5\|
A|-5-5-5-5-5-5-5-5-0-0-0-0-0-0-0-0-2-2-2-2-2-2-2-2--5—2—0---0-5\|
E|--------------------------------------------------3—--------3\|


PRE VERSE

e|-------------------------------------------------|
B|-------------------------------------------------|
G|-7-7-6-6-7-7-----7-7-6-6-7-7-----7-7-6-6-7-7-----|
D|-----0-0-----7-7-----0-0-----7-7-----0-0-----7-7-|
A|-------------------------------------------------|
E|-------------------------------------------------|


VERSE

  |*fill #2*  (keep repeating when started)                |
  |                                                        |
  |                                                        |
  |  e|-------------------------------------------------|  |
  |  B|-------------------------------------------------|  |
  |  G|-7-7-6-6-7-7-----7-7-6-6-7-7-----7-7-6-6-7-7-----|  |
  |  D|-----0-0-----7-7-----0-0-----7-7-----0-0-----7-7-|  |
  |  A|-------------------------------------------------|  |
  |  E|-------------------------------------------------|  |
  |                                                        |
  |P.M.-------------------------------------------------|  |
  |________________________________________________________|

e|------------------------------------------------------—----------|
B|--------------------------------------------------—--------------|
G|-7-7-7-7-7-7-7-7-2-2-2-2-2-2-2-2-4-4-4-4-4-4-4-4-----------------|
D|-7-7-7-7-7-7-7-7-2-2-2-2-2-2-2-2-4-4-4-4—4-4-4-4-5-5-5-5-5-5-5-5-|
A|-5-5-5-5-5-5-5-5-0-0-0-0-0-0-0-0-2-2-2-2-2-2-2-2-5—5-5-5-5-5-5-5-|
E|-------------------------------------------------3—3-3-3-3-3-3-3-|
P.M.---------------------------------------------------------------|

             #2
e|---------------------------------------------—|
B|---------------------------------------------—|
G|-7-7--/7\--2-2-2-2-2-2-2-2-2-4-4-4-4-4-4-4----|
D|-7-7--/7\--2-2-2-2-2-2-2-2-4-4-4-4—4-4-4-4—-5\|
A|-5-5--/7\--0-0-0-0-0-0-0-0-2-2-2-2-2-2-2-2—-5\|
E|--------------------------------------------3\|


PRE CHORUS

e|-------------------------------------------------|
B|-------------------------------------------------|
G|-7-7-6-6-7-7-----7-7-6-6-7-7-----7-7-6-6-7-7-----|
D|-----0-0-----7-7-----0-0-----7-7-----0-0-----7-7-|
A|-------------------------------------------------|
E|-------------------------------------------------|


PRE CHORUS

  ____________________
  |                  |
  |*fill #3*         |
  |                  |
  |  e|-----------|  |
  |  B|-----------|  |
  |  G|-----------|  |
  |  D|-----------|  |
  |  A|4h5-5--4h5/|  |
  |  E|-----------|  |
  |__________________|
  


                                            #3
e|----------------------------------------------------------------------------|
B|----------------------------------------------------------------------------|
G|-------------------------------------------7-7-7-7--------------------------|
D|-5-5-5-5-7-7-7-7-9-9-9-9---5-5-5-5-7-7-7-7-7-7-7-7--5-5-5-5-7-7-7-7-9-9-9-9-|
A|-5-5-5-5-7-7-7-7-9-9-9-9---5-5-5-5-7-7-7-7-5-5-5-5--5-5-5-5-7-7-7-7-9-9-9-9-|
E|-3-3-3-3-5-5-5-5-7-7-7-7---3-3-3-3-5-5-5-5----------3-3-3-3-5-5-5-5-7-7-7-7-|

e|---------------|
B|---------------|
G|---------------|
D|-5-5-5-5-5-5-7-|
A|-5-5-5-5-5-5-7-|
E|-3-3-3-3-3-3-5-|


CHORUS

e|------------------------------------------------------—----------|
B|--------------------------------------------------—--------------|
G|-7-7-7-7-7-7-7-7-2-2-2-2-2-2-2-2-4-4-4-4-4-4-4-4-----------------|
D|-7-7-7-7-7-7-7-7-2-2-2-2-2-2-2-2-4-4-4-4—4-4-4-4-5-5-5-5-5-5-5-5-|
A|-5-5-5-5-5-5-5-5-0-0-0-0-0-0-0-0-2-2-2-2-2-2-2-2-5—5-5-5-5-5-5-5-|
E|-------------------------------------------------3—3-3-3-3-3-3-3-|

e|---------------------------------------------------—----------|
B|---------------------------------------------------—----------|
G|-7-7-7-7-7-7-7-7-2-2-2-2-2-2-2-2-4-4-4-4-4-4-4-4----4-2---2---|
D|-7-7-7-7-7-7-7-7-2-2-2-2-2-2-2-2-4-4-4-4—4-4-4-4--5-4-2---2-5\|
A|-5-5-5-5-5-5-5-5-0-0-0-0-0-0-0-0-2-2-2-2-2-2-2-2--5—2—0---0-5\|
E|--------------------------------------------------3—--------3\|


BRIDGE

e|-----------------------------------------------------------------------|
B|-----------------------------------------------------------------------|
G|---------------------------------4-4-4-4-4-4-4-4-2-2-2-2---2-2-5-------|
D|-2-2-2-2-2-2-2-2-5-5-5-5-5-5-5-5-4-4-4-4-4-4-4-4-2-2-2-2---2-2-5-5-5-5-|
A|-2-2-2-2-2-2-2-2-5-5-5-5-5-5-5-5-2-2-2-2-2-2-2-2-0-0-0-0---0-0-5-5-5-5-|
E|-0-0-0-0-0-0-0-0-3-3-3-3-3-3-3-3-------------------------------3-3-3-3-|

e|-----------------------------------------------------------------------|
B|-----------------------------------------------------------------------|
G|---------------------------------4-4-4-4-4-4-4-4-2-2-2-2---2-2-5-------|
D|-2-2-2-2-2-2-2-2-5-5-5-5-5-5-5-5-4-4-4-4-4-4-4-4-2-2-2-2---2-2-5-5-5-5-|
A|-2-2-2-2-2-2-2-2-5-5-5-5-5-5-5-5-2-2-2-2-2-2-2-2-0-0-0-0---0-0-5-5-5-5-|
E|-0-0-0-0-0-0-0-0-3-3-3-3-3-3-3-3-------------------------------3-3-3-3-|

   _________________________
  | *bass fill*             |
  |                         |
  |  G|------------------|  |
  |  D|------------------|  |
  |  A|------------------|  |
  |  E|-/8\-----/8-8-8-8-|  |
  |_________________________|


stay quiet for verse – if wanted, play verse quietly.

CHORUS

e|------------------------------------------------------—----------|
B|--------------------------------------------------—--------------|
G|-7-7-7-7-7-7-7-7-2-2-2-2-2-2-2-2-4-4-4-4-4-4-4-4-----------------|
D|-7-7-7-7-7-7-7-7-2-2-2-2-2-2-2-2-4-4-4-4—4-4-4-4-5-5-5-5-5-5-5-5-|
A|-5-5-5-5-5-5-5-5-0-0-0-0-0-0-0-0-1-1-1-1-2-2-2-2-5—5-5-5-5-5-5-5-|
E|-------------------------------------------------3—3-3-3-3-3-3-3-|

↓↓↓ slower ↓↓↓
e|------------------------------------------------------—----------|
B|--------------------------------------------------—--------------|
G|-7-7-7-7-7-7-7-7-2-2-2-2-2-2-2-2-4-4-4-4-4-4-4-4-----------------|
D|-7-7-7-7-7-7-7-7-2-2-2-2-2-2-2-2-4-4-4-4—4-4-4-4-5-5-5-5-5-5-5-5-|
A|-5-5-5-5-5-5-5-5-0-0-0-0-0-0-0-0-1-1-1-1-2-2-2-2-5—5-5-5-5-5-5-5-|
E|-------------------------------------------------3—3-3-3-3-3-3-3-|
CHORUS/OUTRO

e|---------------------------------------------------—----------|
B|---------------------------------------------------—----------|
G|-7-7-7-7-7-7-7-7-2-2-2-2-2-2-2-2-4-4-4-4-4-4-4-4----4-2---2---|
D|-7-7-7-7-7-7-7-7-2-2-2-2-2-2-2-2-4-4-4-4—4-4-4-4--5-4-2---2-5\|←
A|-5-5-5-5-5-5-5-5-0-0-0-0-0-0-0-0-2-2-2-2-2-2-2-2--5—2—0---0-5\|← let ring
E|--------------------------------------------------3—--------3\|←
Suggest correction
comments
print report bad tab
5 comments total. Showing first comments.
0 reply
TakeTw0 10 Mar 24, 2009 05:30 PM

Pretty good all though a little confusing to get through.

0 reply
Guitarist2oo8 10 Apr 03, 2009 07:40 AM

pre chorus was super lame -.-'

0 reply
jjzjj 10 Feb 11, 2010 08:42 PM

wow the lammest song i ever sow i can play this ong in my sleep

guest
You may want to rate the tab now too:
select rating
Wanna post a correction for this tab? Suggest correction