Oops, an error
Loading. Please wait.

Great Escape Bass Tab

version 2
version 2

Whole song

Interactive

6,103 views 1 this week
no commentswrite comment
1 2 3 4 5
please rate
add to favorites
launch autoscroll
font size
0
reset
guitar tuner
Autoscroll
slow
fast
+/-
esc
set tempo
stop
Help us to improve Ultimate-Guitar.com Take our survey!
×
Difficulty
novice
ok this is actually going to go with the song!!!

this is my first tab so sorry about the quality


\=Slide Down

(come in with drums)
G|------------------------------------------------|
D|------------------------------------------------|
A|12-12-12-12-12-12-12-12-12-12-12-12-12-12-12-12-|
E|------------------------------------------------|

G|------------------------------------------------|
D|------------------------------------------------|
A|11-11-11-11-11-11-11-11-11-11-11-11-11-11-11-11-|
E|------------------------------------------------|

G|------------------------------------------------|
D|------------------------------------------------|
A|12-12-12-12-12-12-12-12-12-12-12-12-12-12-12-12-|
E|------------------------------------------------|

G|-------------------------------------------------|
D|-------------------------------------------------|
A|11-11-11-11-11-11-11-11-11-11-11-11-11-11-11-11\4|
E|-------------------------------------------------|

G|--------------------------------------------------------------|
D|--------------------------------------------------------------|
A|4-4-4-4-4-4-4-4-4-4-4-4-4-4-4---------------------------------|
E|------------------------------5-5-5-5-5-5-5-5-5-5-5-5-5-5-5-5-|

G|----------------------------------------------------------------|
D|----------------------------------------------------------------|
A|4-4-4-4-4-4-4-4-4-4-4-4-4-4-4-4---------------------------------|
E|--------------------------------5-5-5-5-5-5-5-5-5-5-5-5-5-5-5-5-|

G|------------------------------------------------|
D|------------------------------------------------|
A|4-4-4-4-4-4-4-4-4-4-4-4-4-4-4-4-----------------|
E|--------------------------------5-5-5-5-5-5-5-5-|

(Chorus TIME!!!!)
G|-----------------------------------------------------------------|
D|-----------------------------------------------------------------|
A|-4-4-4-4-4-4-4-4---------------------------------2-2-2-2-2-2-2-2-|
E|-----------------5-5-5-5-5-5-5-5-0-0-0-0-0-0-0-0-----------------|


and From then on you just repeat this and when he is singing after the solo or what ever 
is when he is singing by himself kind of quiet do this.......

G|------------------------------------|
D|------------------------------------|
A|-4--------------------------2-------|
E|----------5---------0---------------|
Suggest correction
Give kudos to tab author, rate the tab!
1 2 3 4 5
comments
print report bad tab
guest
You may want to rate the tab now too:
select rating
Please do not post tabs as comments. Select "correction" instead!