Oops, an error
Loading. Please wait.

Great Escape Tab

version 2
version 2
17,656 views 1 this week
3 commentsread comments
1 2 3 4 5
x 4
add to favorites
launch autoscroll
font size
0
reset
how to read this tab
guitar tuner
Autoscroll
slow
fast
+/-
esc
set tempo
stop
Help us to improve Ultimate-Guitar.com Take our survey!
×
Difficulty
intermediate
All the other tabs are wrong, this is the closest if anything to right because they're 
standard, drop D nor C, they use Open tuning which is

DADF#AD
Please Rate or IM me JesterSk8ter2004 if anything, this is new to me, so maybe some suggestions?

Intro (0:00-0:13)
D--------------------------------------------------------------------|
A---------14---------14----------14-------14-------------------------|
F#-----13----13---13----13-----13-------13----13---------------------|  x4
D---10----------9----------------------------------------------------|
A---------------------------12------10-------------------------------|
D--------------------------------------------------------------------|

Verse (0:13-0:32), (1:04-1:23)
D---0------------0---------------------------------------------------|
A---0------------0---------------------------------------------------|
F#--13---x16-----12---x16--------------------------------------------|  x3
D---12-----------0---------------------------------------------------|
A---12-----------9---------------------------------------------------|
D---0------------0---------------------------------------------------|


Pre-Chorus (0:32-0:37), (1:23-1:28------------------------------------|
D----x----------------------------------------------------------------|
A----x----------------------------------------------------------------|
F#---10---x24---------------------------------------------------------|
D----x----------------------------------------------------------------|
A----7----------------------------------------------------------------|
D----x----------------------------------------------------------------|


PAUSE  "Throw it away"

Chorus (0:38-0:56), (1:29-1:48),
D----00000000---00000000---00000000---00000000-----------------------|
A----00000000---00000000---00000000---00000000-----------------------|
F#---00000000---00000000---00000000---00000000-----------------------| x2
D----99999999---55555555---00000000---77777777-----------------------|
A----99999999---55555555---00000000---77777777-----------------------|
D----99999999---55555555---00000000---77777777-----------------------|

D----00000000---00000000---000000000---------------------------------|
A----00000000---00000000---000000000---------------------------------|
F#---00000000---00000000---000000000---------------------------------|
D----44444444---66666666---777777777---------------------------------|
A----44444444---66666666---777777777---------------------------------|
D----44444444---66666666---777777777---------------------------------|

Post Chorus (0:58-1:04)
D---0------------0---------------------------------------------------|
A---0------------0---------------------------------------------------|
F#--13---x16-----12---x16--------------------------------------------|
D---12-----------0---------------------------------------------------|
A---12-----------9---------------------------------------------------|
D---0------------0---------------------------------------------------|

Bridge A (yea, its wrong, dont yell) (1:49-2:01)
D---0------0------0-----0--------------------------------------------|
A---0------0------0-----0--------------------------------------------|
F#--0------0------0-----0--------------------------------------------|
D---7-x16--6-x16--7-x16-9-x16----------------------------------------|
A---7------6------7-----9--------------------------------------------|
D---7------6------7-----9--------------------------------------------|

Bridge B (2:02-2:14)
D--------------------------------------------------------------------|
A--------------------------------------------------------------------|
F#--14-14-14--12-12-12--10-10-10--14-14-14--15-15-15--17-17-17-------|
D---x--x--x---x--x--x---x--x--x---x--x--x---x--x--x---x--x--x--------|
A---11-11-11--9--9--9---7--7--7---11-11-11--12-12-12--14-14-14-------|
D--------------------------------------------------------------------|

D--------------------------------------------------------------------|
A--------------------------------------------------------------------|
F#--14-14-14--12-12-12--10-10-10--17-17-17--15-15-15--14-14-14-------|
D---x--x--x---x--x--x---x--x--x---x--x--x---x--x--x---x--x--x--------|
A---11-11-11--9--9--9---7--7--7---14-14-14--12-12-12--11-11-11-------|
D--------------------------------------------------------------------|

D--------------------------------------------------------------------|
A--------------------------------------------------------------------|
F#--14-14-14--12-12-12--10-10-10--14-14-14--15-15-15--17-17-17-------|
D---x--x--x---x--x--x---x--x--x---x--x--x---x--x--x---x--x--x--------|
A---11-11-11--9--9--9---7--7--7---11-11-11--12-12-12--14-14-14-------|
D--------------------------------------------------------------------|

D--------------------------------------------------------------------|
A--------------------------------------------------------------------|
F#--14-14-14--12-12-12--10-10-10--9-9-9------------------------------|
D---x--x--x---x--x--x---x--x--x---x-x-x------------------------------|
A---11-11-11--9--9--9---7--7--7---6-6-6------------------------------|
D--------------------------------------------------------------------|

Bridge C (on 2nd time, keep strumming the last chord) (2:14-2:27)
D---0----------0----------0----------0-------------------------------|
A---0----------0----------0----------0-------------------------------|
F#--0----------0----------0----------0-------------------------------| x2
D---9----------5----------0----------7-------------------------------|
A---9----------5----------0----------7-------------------------------|
D---9----------5----------0----------7-------------------------------|

Final Chorus (2:29-3:01)
D----00000000---00000000---00000000---00000000-----------------------|
A----00000000---00000000---00000000---00000000-----------------------|
F#---00000000---00000000---00000000---00000000-----------------------| x4
D----99999999---55555555---00000000---77777777-----------------------|
A----99999999---55555555---00000000---77777777-----------------------|
D----99999999---55555555---00000000---77777777-----------------------|

D----00000000---00000000---000000000---------------------------------|
A----00000000---00000000---000000000---------------------------------|
F#---00000000---00000000---000000000---------------------------------|
D----44444444---66666666---777777777---------------------------------|
A----44444444---66666666---777777777---------------------------------|
D----44444444---66666666---777777777---------------------------------|

Outro (3:01-3:28)
D--------------------------------------------------------------------|
A---------14---------14----------14-------14-------------------------|
F#-----13----13---13----13-----13-------13----13---------------------|  x7
D---10----------9----------------------------------------------------|
A---------------------------12------10-------------------------------|
D--------------------------------------------------------------------|


Good band. Great Song.
Suggest correction
comments
print report bad tab
3 comments total.
0 reply
Blacksun 10 Jul 20, 2007 05:09 PM

this is martins's rhythm guitar part. I'm assuming paul's (with the intro and the bridge solo, lead part, etc.) is in standard tuning. This is in Open D Tuning

0 reply
muskan101 34 Jul 17, 2014 05:39 PM

Clearly wrong.

0 reply
muskan101 34 Jul 17, 2014 05:39 PM

Clearly wrong.

guest
You may want to rate the tab now too:
select rating
Wanna post a correction for this tab? Suggest correction