Oops, an error
Loading. Please wait.

Great Escape Tab

version 3
version 3
10,436 views 1 this week
2 commentsread comments
1 2 3 4 5
accurate
x 5
add to favorites
launch autoscroll
font size
0
reset
how to read this tab
guitar tuner
Autoscroll
slow
fast
+/-
esc
set tempo
stop
Help us to improve Ultimate-Guitar.com Take our survey!
×
Author
dette_x 90
Tuning: standard 


Intro:

Gtr 1
e|----------------------------|
B|----------------------------|
G|----------------------------|    
D|----9--9--9--9--9-----------|  
A|--7--7--6--6-----------9----|
E|--------------9--9--7---7---|


Gtr 2
e|------------------------------------|
B|------------------------------------|
G|--9-9-9-9-9-9-9-9-9-9-9-9-9-9-9-9---|    
D|--9-9-9-9-9-9-9-9-9-9-9-9-9-9-9-9---|  
A|--7-7-7-7-7-7-7-7-7-7-7-7-7-7-7-7---|
E|------------------------------------|



Verse: (paper bags and plastic hearts...)

Gtr 1
e|------------------------------------|
B|------------------------------------|
G|------------------------------------| 
D|--9-9-9-9-9-9-9-9-9-9-9-9-9-9-9-9---|  
A|--7-7-7-7-7-7-7-7-7-7-7-7-7-7-7-7---|
E|------------------------------------|
  PM..................................


Gtr 2
e|------------------------------------|
B|------------------------------------|
G|--9-9-9-9-9-9-9-9-9-9-9-9-9-9-9-9---|   
D|--9-9-9-9-9-9-9-9-9-9-9-9-9-9-9-9---|  
A|--7-7-7-7-7-7-7-7-7-7-7-7-7-7-7-7---|
E|------------------------------------|


Gtr 1 (its goodbye...)
e|----------------------------|
B|----------------------------|
G|----------------------------|    
D|----9--9--9--9--9-----------|  
A|--7--7--6--6-----------9----|
E|--------------9--9--7---7---|


Gtr 2
e|------------------------------------|
B|------------------------------------|
G|--9-9-9-9-9-9-9-9-9-9-9-9-9-9-9-9---|   
D|--9-9-9-9-9-9-9-9-9-9-9-9-9-9-9-9---|  
A|--7-7-7-7-7-7-7-7-7-7-7-7-7-7-7-7---|
E|------------------------------------|



Breakdown: (we can make it right...)

Gtr 1
e|------------------------------------|
B|------------------------------------|
G|--9-9-9-9-9-9-9-9-9-9-9-9-9-9-9-9---|   
D|--9-9-9-9-9-9-9-9-9-9-9-9-9-9-9-9---|  
A|--7-7-7-7-7-7-7-7-7-7-7-7-7-7-7-7---|
E|------------------------------------|



Chorus: (throw it away...)

Gtr 1
e|--0-0-0-00-0-0-0-00-0-0-0-00-0-0-0-00-----|
B|--0-0-0-00-0-0-0-00-0-0-0-00-0-0-0-00-----|
G|--1-1-1-11-1-1-1-11-6-6-6-66-4-4-4-44-----|   
D|--2-2-2-22-2-2-2-22-6-6-6-66-4-4-4-44-----|  
A|--2-2-2-22-0-0-0-00-4-4-4-44-2-2-2-22-----|
E|------------------------------------------|


Gtr 2
e|------12---16--------|
B|--14-----------12----|
G|---------------------|   
D|---------------------|
A|---------------------|
E|---------------------|



Gtr 1
e|---0-0-0-0-0-0-0-0-0-0-0---0--------|
B|---0-0-0-0-0-0-0-0-0-0-0---0--------|
G|---6-6-6-6-9-9-9-9-9-9-9---11-------|   
D|---6-6-6-6-9-9-9-9-9-9-9---11-------|  
A|---4-4-4-4-7-7-7-7-7-7-7---9--------|
E|------------------------------------|



Pre-verse:

Gtr 1
e|------------------------------------|
B|------------------------------------|
G|------------------------------------| 
D|--9-9-9-9-9-9-9-9-9-9-9-9-9-9-9-9---|  
A|--7-7-7-7-7-7-7-7-7-7-7-7-7-7-7-7---|
E|------------------------------------|
  PM..................................



Verse

Breakdown

Chorus



Bridge: (all the wasted time, the...)

Gtr 1
e|--0~---0~---0~---0~---|
B|--0~---0~---0~---0~---|
G|--1~---1~---6~---4~---|
D|--2~---2~---6~---4~---|
A|--2~---0~---4~---2~---|
E|----------------------|



Gutar solo:

Gtr1
e|------------------------19---21-19--------|
B|--12-14-16-16-17-17-----21---22-21-19-----|
G|--13-15-17-17-18-18----------------20-----|
D|------------------------------------------|
A|------------------------------------------|
E|------------------------------------------|

Gtr 1
e|--------------------21-19-----------------------19--17-16-14----|
B|--12-14-16-16-17-17-22-21--------------14-16-17-21--19-17-16----|
G|--13-15-17-17-18-18--------------14-16--------------------------|
D|---------------------------14-16--------------------------------|
A|----------------------------------------------------------------|
E|----------------------------------------------------------------|



Bridge: (throw it away, forget yesterday...)

Gtr 3 [Acsoustic]
e|--0~---0~---0~---0~---|
B|--0~---0~---0~---0~---|
G|--1~---1~---6~---4~---|
D|--2~---2~---6~---4~---|
A|--2~---0~---4~---2~---|
E|----------------------|



Chorus


-end.

:]
Suggest correction new What's this?
You can suggest a correction to this tab. Community and Mods will review your correction and vote to approve or reject it.
comments
print report bad tab
2 comments total.
0 reply
Angelicc 195 wrote on August 6 2007, 10:30 pm

good job man, i like how you attempted the solo, unlike the other like other 4 tabs that are just copies pretty much. Good job, most of it sounds right.

0 reply
blakehell182 184 wrote on August 7 2007, 09:39 pm

hey dude,u did good,the solos wrong,but everything else is just about perfect

guest
You may want to rate the tab now too:
select rating
Please do not post tabs as comments. Select "correction" instead!