Oops, an error
Loading. Please wait.

Heels Over Head Tab

version 1
version 1
23,507 views 3 this week
5 commentsread comments
1 2 3 4 5
accurate
x 4
add to favorites
launch autoscroll
font size
0
reset
how to read this tab
guitar tuner
Tab Pro tools
  • play this tab
  • loop segment
  • change instrument
  • show fretboard
  • metronome
×
Best way to learn
"Heels Over Head"
Autoscroll
slow
fast
+/-
esc
set tempo
stop
Contributor
Heres the Guitar Tab to Heels Over Head, This is my Second Tab that i have written, so 
dont be to mean.


Intro (Palm Mute)
e|-----------------------------------------------------------------|
B|-----------------------------------------------------------------|
G|---------------------------------3-3-3-3-3-3-3-3-3-3-3-3-3-3-3-3-|
D|-3-3-3-3-3-3-3-3-3-3-3-3-3-3-3-3-3-3-3-3-3-3-3-3-3-3-3-3-3-3-3-3-|
A|-3-3-3-3-3-3-3-3-3-3-3-3-3-3-3-3-1-1-1-1-1-1-1-1-1-1-1-1-1-1-1-1-|
E|-1-1-1-1-1-1-1-1-1-1-1-1-1-1-1-1---------------------------------|

Intro (Continued,No Palm Mute)
e|---------------------------|
B|---------------------------|
G|---------------------------|
D|-12-12--10-10--8-----------| x 2
A|-12-12--10-10--8-----------|
E|-10-10---8--8--6-----------|

Pre Chorus
e|-------------------------------|
B|-------------------------------|
G|-3-3-3-3-3-3-3-3----2/12\8-----|
D|-3-3-3-3-3-3-3-3----2/12\8-----|
A|-1-1-1-1-1-1-1-1----0/10\6-----|
E|-------------------------------|

Chorus
e|----------------------------------|
B|----------------------------------|
G|----5-5---------------5-5---------|
D|-3--5-5--7-8--8-8--3--5-5--5--8-8-|
A|-3--3-3--7-8--8-8--3--3-3--5--8-8-|
E|-1-------5-6--6-6--1-------3/-6-6-|

Then Repeat it all, And then Play

e|---------------------|
B|---------------------|
G|---------------------|
D|-5--8-8--------------|
A|-5--8-8--------------|
E|-3/-6-6--------------|

Chorus                      Outro
e|----------------------------------|
B|----------------------------------|
G|----5-5---------------5-5---------|
D|-3--5-5--7-8--8-8--3--5-5--5--8-8-|
A|-3--3-3--7-8--8-8--3--3-3--5--8-8-|
E|-1-------5-6--6-6--1-------3/-6-6-|

And Thats it, Any Comments or Suggestions?
E-mail me at Fullmetal_Rocker2000@yahoo.com
comments
print report bad tab
5 comments total. Showing first comments.
0 reply
funk1196 wrote on June 1 2007, 02:43 am

he always plays this with a capo on i think the 1st fret, and he's much more around the fretboard than just up top during the chorus... anyone else think they know how he plays it?

0 reply
dudester410 wrote on November 22 2007, 08:05 am

i know how, im making tab shortly, it looks nothing like this, this ones wrong, although, mine doesnt include capo
anywhere but it sitll sounds like the real song

0 reply
heyitsmilloy23 wrote on December 24 2007, 08:29 pm

this deffenantly dosent sound right but good effort!!

I want to post or [tab]
guest
You may want to rate the tab now too:
select rating
Please do not post tabs as comments. Select "correction" instead!