Oops, an error
Loading. Please wait.

Heels Over Head Tab

version 5
version 5
2,135 views 1 this week
no commentswrite comment
1 2 3 4 5
3 more votes to show rating
add to favorites
launch autoscroll
font size
0
reset
how to read this tab
guitar tuner
Autoscroll
slow
fast
+/-
esc
set tempo
stop
Help us to improve Ultimate-Guitar.com Take our survey!
×
Author
-------------------------------------------------------------------------------
                     Heels Over Head --> Boys Like Girls
-------------------------------------------------------------------------------
Tabbed by: Bret McGongigle

I'm not the best tabber ever but hopefully this will get people in the right
direction. I don't like drop D but it's the only way to do this song correctly
I saved some space with the number of times a chord is played

Tuning: Drop D (DADGBe)

-intro/verse- (same thing)
e|---------------------------------------------------------------------------|
B|---------------------------------------------------------------------------|
G|-----------3-(16x)-------9---7---5-5------9---7---5-5----------------------|
D|--1-(16x)--3------------10---8---6-6-----10---8---6-6----------------------|
A|--1--------1------------10---8---6-6-----10---8---6-6----------------------|
D|--1---------------------10---8---6-6-----10---8---6-6----------------------|
    pm       pm

-pre-chorus- little riff (2 different ways depends on your preference)
(don't do this before the final chorus/outro)
e|--(-------6-------6-)---------------6-------6------------------------------|
B|--(-6-4-6---6-4-6---)---------6---6---6---6---6~---------------------------|
G|--------------------------------8-------8----------------------------------|
D|---------------------------------------------------------------------------|
A|---------------------------------------------------------------------------|
D|---------------------------------------------------------------------------|
    this way is okay            this is more accurate, let the notes ring

-chorus- (the timing might be a little weird I tried my best to tab it right)
e|---------------------------------------------------------------------------|
B|---------------------------------------------------------------------------|
G|-----x-x-x-x-x-x-x-x-5--5--------------------------------------------------|
D|---1-x-x-x-x-x-x-x-5-5--5---x-x-6---6---x-x-x-x-x-x-6--6-------------------|
A|---1-x-x-x-x-x-x-x-3-3--3---x-x-6---6---x-x-x-x-x-6-6--6-------------------|
D|---1-x-x-x-x-x-x------------x-x-6---6---x-x-x-x-x-6-6--6-------------------|

-chorus continued- 
e|---------------------------------------------------------------------------|
B|---------------------------------------------------------------------------|
G|-----x-x-x-x-x-x-x-x-5--5---x-x--------------------------------------------|
D|---1-x-x-x-x-x-x-x-5-5--5---x-x-5--6--x-6\---------------------------------|
A|---1-x-x-x-x-x-x-x-3-5--5---x-x-5--6--x-6\---------------------------------|
D|---1-x-x-x-x-x-x----------------5--6--x-6\---------------------------------|

-bridge part- (I can't completely figure this part out is in the background)
e|---------------------------------------------------------------------------|
B|---------------------------------------------------------------------------|
G|---------------4-4--4-4--4-4--5-5------------------------------------------|
D|--5-5--6-6-----5-5--5-5--5-5--6-6------------------------------------------|
A|--5-5--6-6-----5-5--5-5--5-5--6-6------------------------------------------|
D|--5-5--6-6-----5-5--5-5--5-5--6-6------------------------------------------|
   or something like this repeated a few times far in the background

-last chorus-
(with about 35 seconds to go in the song they cut out  the muted strums
 but the timing for switching chords stays the same as before)



| /  slide up
| \  slide down
| h  hammer-on
| p  pull-off
| ~  vibrato
| +  harmonic
| x  Mute note
===============================================================================
Suggest correction
Give kudos to tab author, rate the tab!
1 2 3 4 5
comments
print report bad tab
guest
You may want to rate the tab now too:
select rating
Wanna post a correction for this tab? Suggest correction