Oops, an error
Loading. Please wait.

Heroheroine tab

version 4
version 4

Interactive

Video

36,529 views 6 this week
3 commentsread comments
1 2 3 4 5
x 4
add to favorites
×
Save as Personal and add changes to this tab that will be seen only by you. Learn more ›
×
You can save this tab as Personal to edit and correct it or add notes. All changes will be seen only by you. Learn more »
launch autoscroll
font size
0
reset
how to read this tab
guitar tuner
edit
Autoscroll
slow
fast
+/-
esc
set tempo
stop
Author
i'm your hero(rk), you are my heroine(?)

standard tuning

intro
----0----0---|
--0----0-----|  its basically repeating, i lost count on that :)
-5-5--5-5----|
-------------|
-------------|
-------------|

verse
its too late baby......I got my hands......This is how I do
------------------------------------------------------------------|
------------------------------------------------------------------|
-55555555555555555555---------------------------------------------|
-55555555555555555555--555555555555555555--777777777777777777-----|
-33333333333333333333--555555555555555555--777777777777777777-----|
-----------------------333333333333333333--555555555555555555-----|

When I think about you
--------------------------------|
--------------------------------|
--------------------------------|  x2
333333333333333333--------------|
333333333333333333--------------|
111111111111111111--------------|

prechorus
      Cause you....    Now I'm running and screamin
--------------------------------------|
--------------------------------------| 
--------------------------------------| 
--55-777---33------55--777-----3------| 
--55-777---33------55--777-----3------|
--33-555---11------33--555-----1------|

chorus
i feel like a hero, and you are my hero...ine
--------------------------------------------------|
--------------------------------------------------|
55555---------------------------------------------|
55555---------55555---------------7777----3333----| strum is different
33333---------55555---------------7777----3333----|
--------------33333---------------5555----1111----|

repeats verse,prechorus, chorus

bridge
--------------------------------------------------------------------------|
--------------------------------------------------------------------------|
-55555555555555555555-----------------------------------------------------|
-55555555555555555555--555555555555555555--777777777777777777--33333333---|
-33333333333333333333--555555555555555555--777777777777777777--33333333---|
-----------------------333333333333333333--555555555555555555--11111111---|
      And I feel a weakness coming on
      It never felt so good to be so wrong
      Had my heart on lockdown
      And then you turned me around
      And I'm feeling like a newborn child
      Every time I get a chance to see you smile
      It's not complicated
      I was so jaded

prechorus
---------|
---------|
---------| 1 strum
---5-7-3-|
---5-7-3-|
---3-5-1-|

and back to chorus
and repeats bridge 2x

(EDITED - prechorus)
comment ,and correct me if im wrong
rate ;)
Suggest correction
Creating personal tab
Creating personal tab
You can edit any tab online and save it as your Personal.

You can edit, replace or remove any tab part or add personal notes – all changes will be seen only by you.

Personal tabs can be accessed anytime from any device, even offline.
Learn more »
comments
print report bad tab
3 comments total.
0 reply
Concussion 10 Nov 05, 2007 03:01 AM

OMG PLEASE POWERTAB THIS ILL LOVE YOU FOREVER! :) CREEPY, BUT NO REALLY, PLEASE :):)

0 reply
Habitualguitar 10 Jun 22, 2008 12:31 PM

this a good tab, nice very simple but accurate

0 reply
heero10 10 Oct 25, 2009 09:24 AM

I believe the power chords for the bridge is:

--------------------------------------------------------------------------|
--------------------------------------------------------------------------|
-------------------------------------------555555555555555555--------------|
-77777777777777777777--333333333333333333--555555555555555555--55555555---|
-77777777777777777777--333333333333333333--333333333333333333--55555555---|
-55555555555555555555--111111111111111111----------------------33333333---|

guest
You may want to rate the tab now too:
select rating
Wanna post a correction for this tab? Suggest correction