Oops, an error
Loading. Please wait.
We have Chord Pro version of Thunder.
It's the closest thing you can get to the original song and it has interactive parts. Check out the tab »
×
72,766 views 1 this week
3 commentsread comments
1 2 3 4 5
x 9
add to favorites
×
Save as Personal and add changes to this tab that will be seen only by you. Learn more ›
×
You can save this tab as Personal to edit and correct it or add notes. All changes will be seen only by you. Learn more »
launch autoscroll
font size
0
reset
how to read this tab
guitar tuner
backing track
0:00
0:00
edit
Autoscroll
slow
fast
+/-
esc
set tempo
stop
Author
Difficulty
----------------------------------------------------------------------------
                             Thunder – BOYS LIKE GIRLS
----------------------------------------------------------------------------
Tabbed by: XxrokknrollxX


I know its in Open Tuning, but for now I play it in standard


Tuning: Standard


e|-----------3--------3------------3-------3----------3-------3--------------|
B|---------5---5----5---5-------3---3----3---3------1---1---1---1------------|
G|-------5--------5----------4--------4-----------2-------2------------------|
D|---------------------------------------------------------------------------|
A|---------------------------------------------------------------------------|
E|---------------------------------------------------------------------------|



e|-------3~------------------------------------------------------------------|
B|-------3~------------------------------------------------------------------|
G|-------4~------------------------------------------------------------------|
D|---------------------------------------------------------------------------|
A|---------------------------------------------------------------------------|
E|---------------------------------------------------------------------------|


Paul plays this throughout the song.
I’ll try to get it in Open Tuning.


Keep Rockin’!



| /  slide up
| \  slide down
| h  hammer-on
| p  pull-off
| ~  vibrato
| +  harmonic
| x  Mute note

=======================================================================

            
            
Suggest correction
Creating personal tab
Creating personal tab
You can edit any tab online and save it as your Personal.

You can edit, replace or remove any tab part or add personal notes – all changes will be seen only by you.

Personal tabs can be accessed anytime from any device, even offline.
Learn more »
comments
print report bad tab
3 comments total.
0 reply
XxrokknrollxX 47 Aug 22, 2007 06:48 AM

This is my FIRST Tab... sooo ... if i did a good job please rate 5 stars!

-1 reply
Shredtactic 30 Jan 02, 2009 07:50 AM

This song is composed of chords not single notes

0 reply
XxrokknrollxX 47 Feb 28, 2009 04:35 PM

to Shredtactic: This is just the intro...

guest
You may want to rate the tab now too:
select rating
Wanna post a correction for this tab? Suggest correction