Oops, an error
Loading. Please wait.

Two Is Better Than One Tab

version 2
version 2

Acoustic

Interactive

9,098 views 30 this week
no commentswrite comment
1 2 3 4 5
excellent!
x 6
add to favorites
launch autoscroll
font size
0
reset
how to read this tab
guitar tuner
Tab Pro tools
  • play this tab
  • loop segment
  • change instrument
  • show fretboard
  • metronome
×
Best way to learn
"Two Is Better Than One"
Autoscroll
slow
fast
+/-
esc
set tempo
stop
Contributor
Difficulty
Tuning
novice
C G C G C E
     INTRO  
            C5
E|-----------------------------|
B|--------0----0-----0-----0---|
G|------0----0-----0-----0-----|
D|----7-----7----7-----7-------| X2
A|-----------------------------|
E|--0--------------------------|
I remember what you wore on the first day
    VERSE         AM7
E|-----------------------------|
B|--------0-----0-----0-----0--|
G|------0-----0-----0-----0----|
D|----11----11----11----11-----|
A|-----------------------------|
E|--9--------------------------|
You came into my life and I thought hey 
        F2               G5
E|------------------------------|
B|--------0-----0-------0-----0-|
G|------0-----0-------0-----0---|
D|----7-----7-------7-----7-----|
A|------------------------------|
E|--5-------------7-------------|
You know this could be something
             C5
E|------------------------------|
B|--------0-----0-----0-----0---|
G|------0-----0-----0-----0-----|
D|----7-----7-----7-----7-------|
A|------------------------------|
E|--0---------------------------|
             C5
E|------------------------------|
B|--------0-----0-----0-----0---|
G|------0-----0-----0-----0-----|
D|----7-----7-----7-----7-------|
A|------------------------------|
E|--0---------------------------|
Cause everything you do the words you say

              AM7
E|-----------------------------|
B|--------0-----0-----0-----0--|
G|------0-----0-----0-----0----|
D|----11----11----11----11-----|
A|-----------------------------|
E|--9--------------------------|
You know it all takes my breath away 
     F2          G5                C5
E|----------------------------------------------|
B|--------0-----0-------0-----0-------0-----0---|
G|------0-----0-------0-----0-------0-----0-----|
D|----7-----7-------7-----7-------7-----7-------|
A|----------------------------------------------|
E|--5-------------7-------------0---------------|
And now I'm left with nothing


CHORES 

              F2
So maybe its true 
              G5
That i cant live without you
       F2                 G5
Maybe two is better than one
                 F2
There's so much time 
     G5
To figure out the rest of my life
      AM7              G5          F2
And you've already got me coming undone
        
             AM7       G5          C
I'm thinking two is better than one



VERSE 2
 C                                Am7
I remember every look upon your face

The way you roll your eyes
             F2
The way you taste
              G5                C
You make it hard for breathing
 C
Cause when i close my eyes and drift away
 Am7
I think of you and everything's okay
 F2          G5             C
I'm finally now believing



CHORUS
                 F2
Then maybe its true
              G5
That I cant live without you
       F2                  G5
Maybe two is better than one
                 F2
There's so much time
     G5
To figure out the rest of my life
 Am7                   G5          F2
And you've already got me coming undone
             Am7      G5          C
I'm thinking two is better than one



BRIDGE

C - Am7 - F2 - G5

C                                         Am7
I remember what you wore on the first day

You came into my life
                F2
And i thought hey



OUTRO
              F2 
And maybe it's true
              G5                
That I cant live without you
       F2                  G5     
Maybe two is better than one
                 F2      
There's so much time
      G5                            
To figure out the rest of my life
              Am7      G5           F2      
And you've already got me coming undone
          G5            F2    
And I'm thinking oooooohhhh
      G5                         
That I cant live without you
             F2                 G5    
Cause maybe two is better than one
                    F2       
There's so much time
      G                             
To figure out the rest of my life
            Am7           
But I've figured out
      G5               F2    
When all is said and done
 Am7      G5         C     Am7    
Two is better than one
 F2       G5          C        
Two is better than one.
comments
print report bad tab
I want to post or [tab]
guest
You may want to rate the tab now too:
select rating
Please do not post tabs as comments. Select "correction" instead!