Oops, an error
Loading. Please wait.

Two Is Better Than One tab

version 4
version 4
23,211 views 6 this week
2 commentsread comments
1 2 3 4 5
x 3
add to favorites
×
Save as Personal and add changes to this tab that will be seen only by you. Learn more ›
×
You can save this tab as Personal to edit and correct it or add notes. All changes will be seen only by you. Learn more »
launch autoscroll
font size
0
reset
how to read this tab
guitar tuner
edit
Autoscroll
slow
fast
+/-
esc
set tempo
stop
Hey guys, I'm Clarence and i just an ordinary person..
Its my first tab, so hope u guys like it..

Two Better Than One by Boys Like Girls..

Its played on Open D tuning, DADF#AD..

Verse:

D  |-------0-------0-------0-------0-------0-------0-------0-------0-|
A  |---0-------0-------0-------0-------0-------0-------0-------0-----|
F# |-----------------------------------------------------------------|
D  |-0---0---0---0---0---0---0---0---0---0---0---0---0---0---0---0---|
A  |-0-------------------------------0-------------------------------|
D  |-0-------------------------------0-------------------------------|

              vocal start from here : I remembered..................

D  |-------0-------0-------0-------0-------0-------0-|
A  |---0-------0-------0-------0-------0-------0-----|                         
F# |-------------------------------------------------|
D  |-9---9---9---9---9---9---9---9---5---5---5---5---|                         
A  |-9-------------------------------5---------------|
D  |-9-------------------------------5---------------|

  ..day, you came into...............................................

D |-------0-------0-------0-------0-------0-------0-|
A |---0-------0-------0-------0-------0-------0-----|
F#|-------------------------------------------------|
D |-7---7---7---7---0---0---0---0---0---0---0---0---|
A |-7---------------0-------------------------------|
D |-7---------------0-------------------------------|

  ..could be something..............................................

D |-------0-------0-------0-------0-------0-------0-------0-------0-|
A |---0-------0-------0-------0-------0-------0-------0-------0-----|
F#|-----------------------------------------------------------------|
D |-0---0---0---0---0---0---0---0---9---9---9---9---9---9---9---9---|
A |-0-------------------------------9-------------------------------|
D |-0-------------------------------9-------------------------------|

  ..Cause everything................you know.........................

D |-------0-------0-------0-------0-----------------|
A |---0-------0-------0-------0---------------------|
F#|-------------------------------------------------|
D |-5---5---5---5---7---7---7---7-------------------|
A |-5---------------7-------------------------------|
D |-5---------------7-------------------------------|

  ..and now........im left.................

D |-------0-------0-------0-------0-|
A |---0-------0-------0-------0-----|
F#|---------------------------------|
D |-0---0---0---0---0---0---0---0---|
A |-0-------------------------------|
D |-0-------------------------------|

  ....................so maybe its..

  then repeat it again, start from the vocal..

Chorus:

D |-------0-------0-------0-------0-------0-------0-------0-------0-|
A |---0-------0-------0-------0-------0-------0-------0-------0-----|
F#|-----------------------------------------------------------------|
D |-5---5---5---5---5---5---5---5---7---7---7---7---7---7---7---7---|
A |-5-------------------------------7-------------------------------|
D |-5-------------------------------7-------------------------------|

  ..True, i cant live without u.......
    (repeat this three time)

D |-------0-------0-------0-------0-------0-------0-------0-------0-|
A |---0-------0-------0-------0-------0-------0-------0-------0-----|
F#|-----------------------------------------------------------------|
D |-9---9---9---9---7---7---7---7---5---5---5---5---5---5---5---5---|
A |-9---------------7---------------5-------------------------------|
D |-9---------------7---------------5-------------------------------|

  ..and you already....

D |-------0-------0-------0-------0-------0-------0-------0-------0-|
A |---0-------0-------0-------0-------0-------0-------0-------0-----|
F#|-----------------------------------------------------------------|
D |-9---9---9---9---7---7---7---7---0---0---0---0---0---0---0---0---|
A |-9---------------7---------------0-------------------------------|
D |-9---------------7---------------0-------------------------------|

  ..then start from the verse for the second verse and second chorus..
  ..u can either strum it or pluck it..

D Verse:|-0-0-0-0-0-0-0-0-0-| Chorus:|0-0-0-0-0-0-0-0-0-0-0-0-|
A       |-0-0-0-0-0-0-0-0-0-|        |0-0-0-0-0-0-0-0-0-0-0-0-|
F#      |-3-7-x-x-3-3-7-x-x-|        |x-x-x-x-x-x-7-x-x-7-x-3-|
D       |-0-9-5-7-0-0-9-5-7-|        |5-7-5-7-5-7-9-7-5-9-7-0-|
A       |-0-9-5-7-0-0-9-5-7-|        |5-7-5-7-5-7-9-7-5-9-7-0-|
D       |-0-9-5-7-0-0-9-5-7-|        |5-7-5-7-5-7-9-7-5-9-7-0-|


Solo part:

Rythem solo:

D |-0-0/0-0/0-0-0-0-|(listen to their acoustic version for help on this part)
A |-0-0/0-0/0-0-0-0-|
F#|-x-x/7-x/x-x-x-3-|
D |-5-7/9-7/5-2-7-0-|
A |-5-7/9-7/5-2-7-0-|
D |-5-7/9-7/5-2-7-0-|

Bridge:

D |-------0-------0-------0-------0-------0-------0-------0-------0-|
A |---0-------0-------0-------0-------0-------0-------0-------0-----|
F#|-----------------------------------------------------------------|
D |-0---0---0---0---0---0---0---0---9---9---9---9---9---9---9---9---|
A |-0-------------------------------9-------------------------------|
D |-0-------------------------------9-------------------------------|

  ..I remembered................

Ending Chorus:

D |-0-0-0-0-0-0-0-0-0/0||-0-0-0-0-0-0-0-0-0-0-0------0|
A |-0-0-0-0-0-0-0-0-0/0||-0-0-0-0-0-0-0-0-0-0-0------0|
F#|-x-x-x-x-x-x-7-x-x/x||-x-x-x-x-x-x-7-x-x-7-x------3|
D |-5-7-5-7-5-7-9-7-5/7||-5-7-5-7-5-7-9-7-5-9-7------0|
A |-5-7-5-7-5-7-9-7-5/7||-5-7-5-7-5-7-9-7-5-9-7------0|
D |-5-7-5-7-5-7-9-7-5/7||-5-7-5-7-5-7-9-7-5-9-7------0|

  ..last chord strum once only..

Ending:

D |-------0-------0-------0-------0-------0-------0-------0-------0-|
A |---0-------0-------0-------0-------0-------0-------0-------0-----|
F#|-------------3-------3-------3---------------7-------7-------7---|
D |-0---0---0-------0-------0-------9---9---9-------9-------9-------|
A |-0-------------------------------9-------------------------------|
D |-0-------------------------------9-------------------------------|

D |-0-0-0-|
A |-0-0-0-|
F#|-7-0-0-|
D |-9-7-0-|
A |-9-7-0-|
D |-9-7-0-| ..Last chords strum once..

-----------------------------------------------------------------------------

..The End of a Great Song!!!!!!!!!!!!!!!!!!!!!!!!!!!!!!!!

..Contact me, kidslovecakes@gmail.com

            
            
Suggest correction
Creating personal tab
Creating personal tab
You can edit any tab online and save it as your Personal.

You can edit, replace or remove any tab part or add personal notes – all changes will be seen only by you.

Personal tabs can be accessed anytime from any device, even offline.
Learn more »
Give kudos to tab author, rate the tab!
1 2 3 4 5
comments
print report bad tab
2 comments total.
0 reply
Buzz2049 30 Jan 06, 2010 12:58 PM

this IS how they really play the song :P thx

0 reply
kasketix 10 Apr 08, 2010 04:01 AM

BLG plays it many ways , the D is better xD thanks for the tabs

guest
You may want to rate the tab now too:
select rating
Wanna post a correction for this tab? Suggest correction