Oops, an error
Loading. Please wait.

Requiem Bass Tab

759 views 1 this week
no commentswrite comment
1 2 3 4 5
please rate
add to favorites
launch autoscroll
font size
0
reset
guitar tuner
Tab Pro tools
  • play this tab
  • loop segment
  • change instrument
  • show fretboard
  • metronome
Autoscroll
slow
fast
+/-
esc
set tempo
stop
Contributor
Boy Sets Fire
Requiem
Drop D Tuning

Just so it’s clear, if there is one – after the last note, then it is continued onto the 
line.  If there are three – then that is the end of that part.  Many parts were too 
and had to be broken into multiple lines to fit on the page.

Thanks for checking out my tab.  As always, any comments, constructive criticisms, 
and ratings are welcome.  Thanks and enjoy!

Chorus – 0:01 - (Play each part x1)
G|-------------------------------------5-57----------------------|
D|---------------------------------577--7------------------------|
A|--1111-1111-1111-1331----------------------3333-3333-3333-3335-|
D|-----------------------0000-0000-------------------------------|

G|-----------------------|
D|-----------------------|
A|----------------3535---|
D|--0000-0000-00---------|

G|-------------------------------------5-57----------------------|
D|---------------------------------577--7------------------------|
A|--1111-1111-1111-1331----------------------3333-3333-3333-3335-|
D|-----------------------0000-0000-------------------------------|

G|----------------------|
D|----------------------|
A|----------------------|
D|--0000-0000-00-0000---|

Verse – 0:25 – (Play first part x2, second part x1)
G|----------------------------------------------------------------|
D|----------------------------------------------------------------|
A|--1111-1111-1111-1111-----------------------3333-3333-3333-3333-|
D|-----------------------0000-0000-0000-0000----------------------|

G|------------------------|
D|------------------------|
A|------------------------|
D|--0000-0000-0000-0000---|

G|-----------------------------------------------------------------|
D|-----------------------------------------------------------------|
A|--1111-1111-13-1131-------------5---3---5----3333-3333-3333-3333-|
D|---------------------0000-0000----0---0---0----------------------|

G|-------------------|
D|-------------------|
A|---------333-335---|
D|--00-00------------|

Chorus – 1:00 – (Play each part x1)

Alternate Verse – 1:23 – (Play first part x2, second part x1)
G|----------------------------------------------------------------|
D|----------------------------------------------------------------|
A|--1111-1111-1111-1111-----------------------3333-3333-3333-3333-|
D|-----------------------0000-0000-0000-0000----------------------|

G|------------------------|
D|------------------------|
A|------------------------|
D|--0000-0000-0000-0000---|

G|-----------------------------------------------------------------|
D|-----------------------------------------------------------------|
A|--1111-1111-13-1131-------------5---3---5----3333-3333-3333-3333-|
D|---------------------0000-0000----0---0---0----------------------|

G|-------------------|
D|-------------------|
A|---------333-035---|
D|--00-00------------|


Alternate Chorus – 1:58 - (Play each part x1)
G|-------------------------------------5-57----------------------|
D|---------------------------------577--7------------------------|
A|--1111-1111-1111-1331----------------------3333-3333-3333-3335-|
D|-----------------------0000-0000-------------------------------|

G|-----------------------|
D|-----------------------|
A|----------------3535---|
D|--0000-0000-00---------|

G|-------------------------------------5-57----------------------|
D|---------------------------------577--7------------------------|
A|--1111-1111-1111-1331----------------------3333-3333-3333-3335-|
D|-----------------------0000-0000-------------------------------|

G|--------------------------|
D|--------------------------|
A|--------------------------|
D|--0-0-0--00-00-00000000---|


Interlude – 2:22 - (Play first part x3, Second part x1) - The numbers below show how 
times to play each chord.  So kick back and pretend you’re a guitarist when playing this part.

G|--10---12---10---10---10---10---|
D|--12---10---8----7----9----10---|
A|--------------------------------|
D|--------------------------------|
   x15  x15  x16  x8    x4   x4

G|----------------------------------------------------|
D|----------------------------------------------------|
A|--1111-1111-------------3333-3333---------333-035---|
D|-------------0000-0000-------------00—00------------|

Chorus – 3:09 - (Play each part x1)

Alternate Chorus/Ending – 3:32 – (x1)
G|-----------------------------------------------------------|
D|-----------------------------------------------------------|
A|--1111-1111-1111-1111-----------------------3333-3333-3335-|
D|-----------------------0000-0000-0000-0000-----------------|

G|--------------------------------------------------------------------------|
D|--------------------------------------------------------------------------|
A|--1111-1111-1111-1111-----------------------3333-3333-3333-3333-----------|
D|-----------------------0000-0000-0000-0000-----------------------00-000---|
comments
We did not receive enough feedback on this tab! Please rate:
print report bad tab
1 2 3 4 5
I want to post or [tab]
guest
You may want to rate the tab now too:
select rating
Please do not post tabs as comments. Select "correction" instead!