Oops, an error
Loading. Please wait.

Breakdown Dead Ahead tab

4,887 views 9 this week
2 commentsread comments
1 2 3 4 5
x 3
add to favorites
×
Save as Personal and add changes to this tab that will be seen only by you. Learn more ›
×
You can save this tab as Personal to edit and correct it or add notes. All changes will be seen only by you. Learn more »
launch autoscroll
font size
0
reset
how to read this tab
guitar tuner
edit
Autoscroll
slow
fast
+/-
esc
set tempo
stop
Author
Difficulty
Boz Scaggs - Breakdown Dead Ahead
from Greatest Hits Live, 2004
solo performed by Drew Zingg which is bit different from original (Steve
Lukather's on Middle Man).

Solo is difficult to tab but all notes should be there..any corrections are welcome.

In verses, could not tab better but listen to the song and see what i meant by "G7
G7sus4 G7". Like this:

G-----5-4--|
D----3-3---|


tabbed by Almir Nametak,mokra@starmo.co.uk June 2013

G7sus4 353533
G7     353433
C9     x3233x
Bb     x1333x
A#6    x1303x
Bbmaj7 x1323x
D5     x577xx
C5     x355xx
G5     355xxx
C      x3555x
F      13321x
Bm     x2443x
Am     x0221x



Intro lick
E-------------------------------------------------------------------------------------------22---|
B-------------------------------------------------------------------------------------------00---|
G--------------------------------------------------------------------------------5\3--------00---|
D-5-5---5-5---5-5---5-7-8-7-5 x2 -5-5---5-5---5---------- then 7/8 -- ends-with -----5\3---------|
A----5-7---5-7---5-7---------5-------5-7---5-7-8-7-5------------------------------------5\3------|
E---------------------------------------------------8-6-3---------6-------------------------33---|



G7     G7sus4 G7             G7sus4 G7
I call ya you ain't in

          G7 G7sus4 G7                      G7sus4 G7 C9
What's this cold reaction, where've you been?

            F
Ooh, baby, let it on the line

Bb      A#6          Bbmaj7     A#6
This is last call, you say that's all

Am                D5
You can take it fine


G7     G7sus4 G7             G7sus4 G7
I'm sorry but it don't make sense
          G7 G7sus4 G7                      G7sus4 G7 C9
You're pullin' just right out on first offense
           F
Ooh, baby, play it smart
Bb      A#6          Bbmaj7     A#6
For you go south with your big mouth
Am                D5
Let it take your heart

G                 Bm             C    D5
Danger, there's a breakdown dead ahead
Em     Bm      D5     G        C   Bm  Em
Maybe you're in way above your head
Am          Bm
I may burn, might upset you
Em                D5           C5   C5 C5 G5
But you know I'd never let you down



I told ya no more lyin'

No more tears fallin', stop your cryin'

Ooh, baby, I'm your fan

Before you go back to your side track

Baby, understand


Danger, there's a breakdown dead ahead

And just maybe you're in way above your head

I may burn, might upset you

But you know I'd never let you down

C5   C5   G5
No, no, no

No, no, no, no

No, no, no, no, no, no, no



Guitar Solo

E-------5b6p5-b6p5-b6p5-b6p5-3-3-------------------------------------8--7-6-5-4-3------------------|
B-----5-----------------------5-565-3-3--------------------8---8-10b--10-9-8-7-6-5-----------------|
G------------------------------------5-3---3------------7/9-7/9-------------------5\3--------------|
D---------------------------------------5-2-2-5-0----5-------------------------------5\3-----------|
A------------------------------------------------3-0------------------------------------5\3-3\1----|
E---------------------------------------------------6/7----------------------------------------3---|


E---------------------10-9-8--------------------------------------10-------------------------------|
B-------------------8----------------------------------------8-10b-10b-8---------------------------|
G----------------7-9-7-------12-10-------------------12-11-10--------------------------------------|
D-----------5-7/9-----------------12-11-10-8--10--8/9--9--9----------------------------------------|
A----------5--------------------------------10--10-------------------------------------------------|
E-----3-5/7----------------------------------------------------------------------------------------|

E-------15\14--12\10-------------------------------------------------------------------------------|
B-----12-----10-------12\10------------------------------------------------------------------------|
G-------------------11-------12\11-9\8-------------------------------------------------------------|
D--------------------------12-----7----9\8---------------------------------------------------------|
A-------------------------------------9-----8/9----------------------------------------------------|
E-----------------------------------------10-------------------------------------------------------|

E--------------------------------------------14-15-14--------15--18b20-17b19-----------------------|
B------7---7-10----10-12-----12-15-----15-17b--------15-----15-15----------------------------------|
G-------7/9----9/11-----12/14-----14/16----------------14-17b--------------------------------------|
D--------------------------------------------------------------------------------------------------|
A--------------------------------------------------------------------------------------------------|
E--------------------------------------------------------------------------------------------------|


Danger, there's a breakdown dead ahead
Then just maybe you're in way above your head
I may burn, might upset you
But you know I'd never let you down
No, no, no

Danger, there's a breakdown dead ahead
And just maybe you're in way above your head
I may burn, might upset you
But you know I'd never let you down, down, down, down
No, no, no, no


Outro solo.. will update once i get some more time..
Thanks
Almir

            
            
Suggest correction
Creating personal tab
Creating personal tab
You can edit any tab online and save it as your Personal.

You can edit, replace or remove any tab part or add personal notes – all changes will be seen only by you.

Personal tabs can be accessed anytime from any device, even offline.
Learn more »
Give kudos to tab author, rate the tab!
1 2 3 4 5
comments
print report bad tab
2 comments total.
+1 reply
SeptemberHeat 10 Feb 18, 2015 03:36 PM

I never heard of B-sharp

guest
You may want to rate the tab now too:
select rating
Wanna post a correction for this tab? Suggest correction