Oops, an error
Loading. Please wait.

Cherokee Boogie Chords

version 2
version 2

Whole song

  • Full Song with Guitar Riff and Solo.
13 views 1 this week
no commentswrite comment
1 2 3 4 5
2 more votes to show rating
add to favorites
launch autoscroll
font size
0
reset
transpose
0
reset
simplify chords
display chords
guitar tuner
Autoscroll
slow
fast
+/-
esc
set tempo
stop
Help us to improve Ultimate-Guitar.com Take our survey!
×
Author
Difficulty
intermediate
About this tab version
Full Song with Guitar Riff and Solo. Was this info helpful? Yes No
Drums xxxx/G 

Riff throughout the song:  Use a Gretsch Guitar and palm mute
[Intro]
   G             C             D
e|-------------|-------------|-------------|
B|-------------|-------------|-------------|
G|-------------|-------------|-------------|
D|-5--2------2-|-------------|-------------|
A|------5-5----|-3--0------0-|-5--2------2-|
E|-------------|------3-3----|------5-5----|

[Verse]
        G
Well, A Cherokee chief as he dances along
G                             G7
He does an Indian boogie to a white man's song
         C
Singin' "Hey-ho-a-lina" "Hey-ho-a-lina"
 G
"Hey-ho-a-lina" "Hey-ho-a-lina"
          D                               G
A well a "hey-ho-a-lina wup-wup a-wittena-yea"

[Verse]
         G
Well, he dances over here and he dances over there
G                         G7
And he keeps on a dancin' everywhere
         C
Singin' "Hey-ho-a-lina" "Hey-ho-a-lina"
 G
"Hey-ho-a-lina" "Hey-ho-a-lina"
          D                               G
A well a "hey-ho-a-lina wup-wup a-wittena-yea"

[Solo]
   G
e|---------------------------------------|---------------------------------------|
B|-2/3-2/3-------------2/3-2/3-----------|-2/3-2/3-------------2/3-2/3-----------|
G|-3/4-3/4--0----------3/4-3/4--0--------|-3/4-3/4--0----------3/4-3/4--0--------|
D|------------0-2-0---------------0-2-0--|------------0-2-0---------------0-2-0--|
A|---------------------------------------|---------------------------------------|
E|---------------------------------------|---------------------------------------|

   C                                       G
e|---------------------------------------|-----0------0------0------0------0-----|
B|-1/2-1/2-------------1/2-1/2-----------|---------------------------------------|
G|-2/3-2/3--0----------2/3-2/3--0--------|-3h4----3h4----3h4----3h4----3h4-------|
D|------------0-2-0---------------0-2-0--|---------------------------------------|
A|---------------------------------------|---------------------------------------|
E|---------------------------------------|---------------------------------------|
                                           <-3->

   D                                       G
e|---------------------------------------|---------------------------------------|
B|------------------------8----8x--------|-------------2/3---2/3---2/3---2/3-----|
G|-/5--/5--4--/5--/7---/7--------7\5p3---|-------------3/4---3/4---3/4---3/4-----|
D|------------------------------------5p3|-5-------------------------------------|
A|---------------------------------------|---------------------------------------|
E|---------------------------------------|---------------------------------------|

[Verse]
         G
Well, he dances on the hill and he dances on the rock
G                            G7
But he keeps on shaking that tomohawk
         C
Singin' "Hey-ho-a-lina" "Hey-ho-a-lina"
 G
"Hey-ho-a-lina" "Hey-ho-a-lina"
          D                               G
A well a "hey-ho-a-lina wup-wup a-wittena-yea"


[Verse]
         G
Well, he sings to the hills and he sings to the clouds
G                          G7
And he keeps on singin' so big and proud
       C
A now "Hey-ho-a-lina" "Hey-ho-a-lina"
 G
"Hey-ho-a-lina" "Hey-ho-a-lina"
          D                               G
A well a "hey-ho-a-lina wup-wup a-wittena-yea"

G G C G D G

[Verse]
             G
Well, he's a Cherokee chief as a you might know
G                                G7
And he keeps on sittin' singing "nuven-yo"
     C
Now "Hey-ho-a-lina" "Hey-ho-a-lina"
 G
"Hey-ho-a-lina" "Hey-ho-a-lina"
          D                               G
A well a "hey-ho-a-lina wup-wup a-wittena-yea"

[Verse]
        G
Well, A Cherokee chief as he dances along
G                             G7
He does an Indian boogie to a white man's song
         C
Singin' "Hey-ho-a-lina" "Hey-ho-a-lina"
 G
"Hey-ho-a-lina" "Hey-ho-a-lina"
          D                               G     G
A well a "hey-ho-a-lina wup-wup a-wittena-yea"

[Outro]
   G                G
e|----------------|----|
B|----------------|----|
G|----------------|----|
D|-5--2---2--5--2-|-5--|
A|------5---------|----|
E|----------------|----|

Transcribed by Texas JGFull 
Suggest correction
Give kudos to tab author, rate the tab!
1 2 3 4 5
comments
print report bad tab
guest
You may want to rate the tab now too:
select rating
Wanna post a correction for this tab? Suggest correction