Oops, an error
Loading. Please wait.

Gravity Falls Main Title Theme Tab

version 2
version 2

Whole song

  • Playable Fingerstyle. Uses non-standard tuning.

Interactive

79 views 3 this week
no commentswrite comment
1 2 3 4 5
3 more votes to show rating
add to favorites
launch autoscroll
font size
0
reset
how to read this tab
guitar tuner
Autoscroll
slow
fast
+/-
esc
set tempo
stop
Help us to improve Ultimate-Guitar.com Take our survey!
×
Author
Difficulty
Tuning
intermediate
D A D G B E
About this tab version
Playable Fingerstyle. Uses non-standard tuning. Was this info helpful? Yes No
Opening Theme
Gravity Falls

Song By Brad Breek
Arranged By John Lee

Lute + Drop-D tuning (DADF#BE)

      E  E  E  E  E  E  E  E     E  E  E  E  E  E  E  E     E  E  E  E  E  E  E  E     E  E  E  E  Q    Q
E|--1-----------1-----------|--1-----------1-----------|--0-----------0-----------|--0-----------0----5--|
B|-----3-----3-----3-----3--|-----1-----1-----1-----1--|-----2-----2-----2-----2--|-----2-----2----------|
F#|--------3-----------3----|--------3-----------3-----|--------3-----------3-----|--------3-------------|
D|--------------------------|--------------------------|--------------------------|----------------------|
A|--------------------------|--------------------------|--0-----------------------|--0-----------0-------|
D|--0-----------------------|--3-----------------------|--------------------------|----------------------|


    E  E  E  E  E  E  E  E     E  E  E  E  E  E  E  E     E  E  E  E  E  E  E  E     E  E  E  E  E  E  E  E
E|--------------------0-----|--1-----------------------|--5--------3--------5-----|-------------------------|
B|--3-----------------------|--------------------------|--------------------------|-------------------------|
F#|-------------------------|--------------------------|--------------3-----------|--6-----------3----------|
D|--------0-----3-----0-----|--------0-----3-----0-----|--------3-----------3-----|--------3-----------3----|
A|-----0-----0-----0-----0--|-----0-----0-----0-----0--|-----3-----3-----3-----3--|-----3-----3-----3-----3-|
D|--0-----------------------|--0-----------------------|--3-----------------------|--3----------------------|


    E  E  E  E  E  E  E  E     E  E  E  E  E  E  E  E     E  E  E  E  E  E  E  E     E  E  E  E  E  E  E  E
E|--------------------0-----|--1-----------0-----------|--3-----------5-----------|--3-----------------------|
B|--3-----------------------|--------------------------|--------------------------|--------------6-----------|
F#|--------4-----------4----|--------4--------------4--|--------6--------------6--|--------6--------------6--|
D|-----3-----3-----3-----3--|-----3-----3--------3-----|-----5-----5--------5-----|-----5-----5--------5-----|
A|--1-----------1-----------|--1--------------1--------|--3--------------3--------|--3--------------3--------|
D|--------------------------|--------------------------|--------------------------|--------------------------|


    E  E  E  E  E  E  E  E     E  E  E  E  E  E  E  E     E  E  E  E  E  E  E  E     E  E  E  E  E  E  E  E
E|--------1-----1-----1-----|--5-----5-----3-----1-----|--------5-----5-----5-----|--3-----5-----3-----------|
B|--------------------------|--------------------------|--------------------------|--------------------6-----|
F#|-------------------------|--------------------------|--------------------------|--------------------------|
D|--------0-----------0-----|--------0-----------0-----|--------3-----------3-----|--------3-----------3-----|
A|-----0-----0-----0-----0--|-----0-----0-----0-----0--|-----3-----3-----3-----3--|-----3-----3-----3-----3--|
D|--0-----------0-----------|--0-----------0-----------|--3-----------3-----------|--3-----------3-----------|


    E  E   E  E   E  E   E  E      E  E   E  E  E  E   E  E      E   E   E   E   E   E   E   E
E|-----------------------------|-----------------------------|----------------------------------|
B|-----------------------------|--10-----10-----8------------|----------10------10------10------|
F#|-------11-----11-----11-----|----------------------11-----|----------------------------------|
D|---------8-------------8-----|----------8------------8-----|----------10--------------10------|
A|-----8------8------8------8--|------8------8-----8------8--|------10------10------10------10--|
D|--8-------------8------------|---8------------8------------|--10--------------10--------------|


    E  E  E  E  E  E  E  E     E  E  E  E  E  E  E  E     E  E  E  E  E  E  E  E
E|--------9-----9-----9-----|--------1-----1-----1-----|--5-----5-----3--------------|
B|--------------------------|--------------------------|--------------------6--------|
F#|-------------------------|--------------------------|-----------------------------|
D|--------7-----------7-----|--------0-----------0-----|--------3-----------3--------|
A|-----7-----7-----7-----7--|-----0-----0-----0-----0--|-----3-----3-----3-----3-----|
D|--7-----------7-----------|--0-----------0-----------|--3-----------3--------------|


    E  E   E  E   E  E   E  E      E   E   E   E   E   E   E   E      E  E  E  E  E  E  E  E
E|-----------------------------|-------------------8--------------|---------------9-----------|
B|--------11-----11-----11-----|---8------------------------------|--10-----------------------|
F#|----------------------------|----------------------------------|---------------------------|
D|---------8-------------8-----|----------10--------------10------|---------7-----------7-----|
A|-----8------8------8------8--|------10------10------10------10--|------7-----7-----7-----7--|
D|--8-------------8------------|--10--------------10--------------|---7-----------7-----------|


    E  E  E  E  E  E  E  E      H        H
E|-----------5--------5--9--|--10-----------------|-----------|
B|--6-----6-----5-----------|---------------------|-----------|
F#|-----8-----------7-------|---------------------|-----------|
D|--------------------------|---------------------|-----------|
A|--------------------------|---------------------|-----------|
D|--0-----------------------|------------0--------|-----------|


************************************

| W  whole
| H  half
| Q  quarter
| E  8th
| .  note dotted

************************************
Suggest correction
Give kudos to tab author, rate the tab!
1 2 3 4 5
comments
print report bad tab
guest
You may want to rate the tab now too:
select rating
Wanna post a correction for this tab? Suggest correction