Oops, an error
Loading. Please wait.

Gravity Falls Title Theme Tab

19 views 1 this week
no commentswrite comment
1 2 3 4 5
3 more votes to show rating
add to favorites
launch autoscroll
font size
0
reset
how to read this tab
guitar tuner
Autoscroll
slow
fast
+/-
esc
set tempo
stop
Help us to improve Ultimate-Guitar.com Take our survey!
×
Author
Difficulty
Capo
intermediate
3rd fret
About this tab version
Here's more of a fingerpicking version of the theme. Was this info helpful? Yes No
Gravity Falls - Main Theme (By Brad Breeck) - Capo on 3rd fret

  
     Bm (Dm)                D (F)                F# (A)               A (C)                G (Bb)
E|------2-------|    E|-------2------|     E|------2-------|    E|--------------|    E|--------------|
B|------3-------|    B|-------3------|     B|------2-------|    B|------2-------|    B|--------------|
G|------4-------|    G|-------2------|     G|------3-------|    G|------2-------|    G|--------------|
D|------4-------|    D|--------------|     D|------4-------|    D|------2-------|    D|--------------|
A|------2-------|    A|--------------|     A|------4-------|    A|--------------|    A|--------------|
E|------2-------|    E|--------------|     E|------2-------|    E|--------------|    E|--------------|

[Intro]
    Bm                       D                      F#             
e|---------------------------------------------------------------------------------------------0---|
B|---3-----------3-----------3-----------3-----------2-----------2-----------2-----------2---------|
G|------4-----4-----4-----4-----2-----2-----2-----2-----3-----3-----3-----3-----3-----3-----3------|
D|---------4-----------4-----------0-----------0-----------4-----------4-----------4---------------|
A|---4-----------------------0-----------------------4-----------------------4---------------------|
E|-------------------------------------------------------------------------------------------------|

[Middle part]
     Bm                                              D                        A
e|---------------------------------------------------2--------0--------2---------------------------|
B|---3--------3--------2-----3--------3--------3--------3--------3--------3---2--------2--------2--|
G|------4--------4--------4-----4--------4--------4--------2--------2------------2--------2--------|
D|---------4--------4--------------4--------4--------0------------------------------2--------2-----|
A|---2-----------------------2------------------------------------------------0--------------------|
E|-------------------------------------------------------------------------------------------------|


    Bm                                               A                        F#             
e|---------------------------------------------------0--------0--------0------2--------2--------2--|
B|--3--------3--------2-----3--------2--------2---------2--------2--------2------2--------2-------2|
G|-----4--------4--------4-----4--------4--------4---------2--------2---------------3--------3-----|
D|--------4--------4--------------4--------4---------2------------------------4--------------------|
A|--2-----------------------2----------------------------------------------------------------------|
E|-------------------------------------------------------------------------------------------------|


    Bm                                                  D      
e|--------------------------2--------0--------------|---2--------2--------2-------0----2----0h2h0--|
B|--3--------3--------3-----------------------3-----|------3--------3--------3--------------------3|
G|-----4--------4--------4-----4--------4--------4--|---------2--------3---------------------------|
D|--------4--------4--------------4--------4--------|---0------------------------------------------|
A|--2-----------------------------------------------|----------------------------------------------|
E|--------------------------------------------------|----------------------------------------------|


   Bm                                                D       slide to       D#4
e|-------------------------2--------0--------------|-2--------2--------2-----6--------6--------6---|
B|-3--------3--------3------------------------3----|----3--------3--------3-----7--------7--------7|
G|----4--------4--------4-----4--------0---------4-|-------2--------3--------6-----6--------6------|
D|-------4--------4--------------4---------4-------|-0---------------------------------------------|
A|-2-----------------------------------------------|-----------------------------------------------|
E|-------------------------------------------------|-----------------------------------------------|

[Outro]
   Bm                                               G                       A
e|--------------------------2--------0--------------3--------3--------3-----0--------0--------0----|
B|--3--------3--------3-----------------------3--------3--------3--------4-----2--------2--------2-|
G|-----4--------4--------4-----4--------0--------4--------4--------4--------------2--------2-------|
D|--------4--------4--------------4--------4--------5-----------------------2----------------------|
A|--2----------------------------------------------------------------------------------------------|
E|-------------------------------------------------------------------------------------------------|


    G                         Bm      Fm#5
e|--2--------2--------2-------2-------10-----------------------------------------------------------|
B|-----2--------2--------2----3-------10-----------------------------------------------------------|
G|--------3--------3----------4-------10-----------------------------------------------------------|
D|--4-------------------------4-------12-----------------------------------------------------------|
A|----------------------------2-------12-----------------------------------------------------------|
E|----------------------------2-------10-----------------------------------------------------------|
 

************************************

| h  finger tapping 

************************************
Suggest correction
Give kudos to tab author, rate the tab!
1 2 3 4 5
comments
print report bad tab
guest
You may want to rate the tab now too:
select rating
Wanna post a correction for this tab? Suggest correction