Oops, an error
Loading. Please wait.

Aint Nothin Like Tab

version 2
version 2

Interactive

2,050 views 1 this week
2 commentsread comments
1 2 3 4 5
2 more votes to show rating
add to favorites
launch autoscroll
font size
0
reset
how to read this tab
guitar tuner
Autoscroll
slow
fast
+/-
esc
set tempo
stop
Help us to improve Ultimate-Guitar.com Take our survey!
×
Author
Difficulty
novice
Tuning: Standard
h= hamer on

e|--------------------------------------------------------------------------|
B|----------------------------------1---------------------------------------|
G|----- 0h2-0h2-0---------------0-0-2-2-0-0----------0----------------------|
D|-0h2-----------0h2-0---0---0h2-----------0h2-0--0h2-----------------------|
A|3-------------------3---3---------------------3---------------------------|
E|--------------------------------------------------------------------------|

e|--------------------------------------------------------------------------|
B|----------------------------------1---------------------------------------|
G|-----0h2-0h2-0---------------0-0-2-2-0-0----------------------------------|
D|--0h2---------0h2-0---0---0h2-----------0h2-0-----------------------------|
A|-3------------------3---3---------------------0-2-3-----------------------|
E|--------------------------------------------------------------------------|
Suggest correction
Give kudos to tab author, rate the tab!
1 2 3 4 5
comments
print report bad tab
2 comments total.
0 reply
eyeeatdogs 16 Sep 29, 2008 09:16 PM

there is supposed to be another 0 on the G string before the 0h2 0h2 part.
and B------1-------
G--0-0-2-2-0-0- is supposed to be


B-------1-----
G--0-0-2-2-0-0

sorry about that.

0 reply
Bryson11 313 Jul 05, 2010 04:59 PM

missing notes in it

guest
You may want to rate the tab now too:
select rating
Wanna post a correction for this tab? Suggest correction