Oops, an error
Loading. Please wait.

American Saturday Night Tab

11,387 views 21 this week
2 commentsread comments
1 2 3 4 5
accurate
x 3
add to favorites
launch autoscroll
font size
0
reset
how to read this tab
guitar tuner
Tab Pro tools
  • play this tab
  • loop segment
  • change instrument
  • show fretboard
  • metronome
×
Best way to learn
"American Saturday Night"
Autoscroll
slow
fast
+/-
esc
set tempo
stop
Contributor
Difficulty
intermediate
Song: American Saturday Night
Album: American Saturday Night
Artist: Brad Paisley
Tabbed By: Bryson11

Legend
/ Slide
b bend
br bend release
h hammer on
p pull off
v vibrato
* harmonic
x palm mute


Intro:

||--5------------|----------------|--------------------|
||----6/4--------|----------------|--/5---5-4----------|
||---------------|--1/2-----------|--/4-------4-4bbr---|
||---------------|----------------|--------------------|
||---------------|----------------|--------------------|
||---------------|----------------|--------------------|

8xs
||-------------------------------------------||
||o-----------------------------------------o||
||------------------------2---------2--------||
||-----2-----0---2----------4--2------4--2---||
||o------2-----2---2----0---------0---------o||
||---0-----0---------------------------------||

riffs in the intro:
    E
||--0----------------|-----------------|--------------------------|
||--0----------------|-----------------|--------10----------------|
||--1----------------|----2--4---2b----|-----7--9bbr--10---7--9---|
||--2----------------|--2-----------2--|--/9----------------------|
||--2----------------|-----------------|--------------------------|
||--0----------------|-----------------|--------------------------|

|-----0----------------------|-------------------||
|----------------------------|-------------------||
|--2b---2p0---0--2bbrp0------|-------------------||
|-----------2-----------2----|----2---2---2---2--||
|----------------------------|--0---0---0---0----||
|----------------------------|-------------------||

verse 1
8xs
||-------------------------------------------||
||o-----------------------------------------o||
||------------------------2---------2--------||
||-----2-----0---2----------4--2------4--2---||
||o------2-----2---2----0---------0---------o||
||---0-----0---------------------------------||

Chorus
    E                      A                      E
||--0-------------------|--0-------------------|--0-----------------|--|
||--0-------------------|--2-------------------|--0-----------------|--|
||--1-------------------|--2-------------------|--1-----------------|--|
||--2-------------------|--2-------------------|--2-----------------|--|
||--2-------------------|--0-------------------|--2-----------------|--|
||--0-------------------|----------------------|--0-----------------|--|

   A                       E                      B         A         E
|--0--------------------|--0-------------------|------------0---------0--||
|--2--------------------|--0-------------------|------------2---------0--||
|--2--------------------|--1-------------------|--4---------2---------1--||
|--2--------------------|--2-------------------|--4---------2---------2--||
|--0--------------------|--2-------------------|--2---------0---------2--||
|-----------------------|--0-------------------|--0-------------------0--||

Intro to verse 2
2xs
||-------------------------------------------||
||o-----------------------------------------o||
||------------------------2---------2--------||
||-----2-----0---2----------4--2------4--2---||
||o------2-----2---2----0---------0---------o||
||---0-----0---------------------------------||

Or you can play the riffs below:
||-------------------|--------------------||
||---------5---------|--------------------||
||-------------0-----|--------------------||
||--/5h7-----7---6---|----2---2---2---2---||
||-------------------|--0---0---0---0-----||
||-------------------|--------------------||

verse 2
6xs
||-------------------------------------------||
||o-----------------------------------------o||
||-----------------------2---------2---------||
||-----2-----0---2---------4--2------4--2----||
||o------2-----2---2---0---------0----------o||
||---0-----0---------------------------------||

   B                A                 B
|--2-------------|--0--------------|-----------------|
|--2-------------|--2--------------|-----------------|
|--4-------------|--2--------------|--4--------------|
|--4-------------|--2--------------|--4--------------|
|--2-------------|--0--------------|--2--------------|
|--0-------------|-----------------|--0--------------|

Chorus......

Pre Solo:
   C#m               B          A        E
||--4-------------|-------------0-----|--0-----------------|
||--4-------------|-------------2-----|--0-----------------|
||--6-------------|--4----------2-----|--1-----------------|
||--6-------------|--4----------2-----|--2-----------------|
||--4-------------|--2----------0-----|--2-----------------|
||--x-------------|-------------------|--0-----------------|

  C#m                B          E        A
|--4--------------|-------------0-----|--0-----------------|--|
|--4--------------|-------------0-----|--2-----------------|--|
|--6--------------|--4----------1-----|--2-----------------|--|
|--6--------------|--4----------2-----|--2-----------------|--|
|--4--------------|--2----------2-----|--0-----------------|--|
|--x--------------|-------------0-----|--------------------|--|

   A                 E                  B                  E
|--0--------------|--0---------------|------------------|--0-------------|--|
|--2--------------|--0---------------|------------------|--0-------------|--|
|--2--------------|--1---------------|--4---------------|--1-------------|--|
|--2--------------|--2---------------|--4---------------|--2-------------|--|
|--0--------------|--2---------------|--2---------------|--2-------------|--|
|-----------------|--0---------------|------------------|--0-------------|--|

   A                   E                   B
|--0----------------|--0----------------|------------------||
|--2----------------|--0----------------|------------------||
|--2----------------|--1----------------|--4---------------||
|--2----------------|--2----------------|--4---------------||
|--0----------------|--2----------------|--2---------------||
|-------------------|--0----------------|------------------||

riffs in the pre-solo
||--------------------------------------------------------------|--|
||-------------------------------------------------------14-----|--|
||-------------------------------------------------12h14----13--|--|
||----------------------6h8/10--8h10/12--10h12/14---------------|--|
||--------2h4/6--4h6/8------------------------------------------|--|
||--0h2h4-------------------------------------------------------|--|

|----0---0---0----0----0------||
|-----------------------------||
|--4---6---9---11---13---14---||
|-----------------------------||
|-----------------------------||
|-----------------------------||

solo
||--------------------------------------------------------|
||----------------------------5---4bbr------5---5---------|
||--------------------------6---6-------4/6---6---6---4---|
||--------------------4h6/8-------------------------6-----|
||-----------------0--------------------------------------|
||--0--0/2--0--2/5----------------------------------------|

|-----0--------------------------------------|--|
|--------------------------------------------|--|
|--2b---2b--2b--2bbrp0---0-------------------|--|
|----------------------2---------------------|--|
|--------------------------------0--------0--|--|
|-----------------------------/5----5vvvv----|--|

|------------------------------|--10----------------------------------------|
|-------------------10--12bbr--|--13p10----10h12p10----10-------------------|
|------------------------------|--------12----------12----12p10----10h12p12-|
|-----------7h9/11-------------|--------------------------------12----------|
|-----5h7/9--------------------|--------------------------------------------|
|--/5--------------------------|--------------------------------------------|

-------------|---------------------------12*----|--|
-------------|---------------------------12*----|--|
-------------|-----------------------7*---------|--|
--12--10-----|-----------------------7*---------|--|
---------12--|--5b--0-------0---0---------------|--|
-------------|--------0--5b---0-----------------|--|

|-------------------------------------------------------------------------|
|--7------7-----7-----12-------12-------12-----7-----7-----------7--------|
|-------9-----9-------------14-------14------------9-----9----0--7bbr--7--|
|-----9-----9------------14-------14-------------9-----9------------------|
|-------------------------------------------------------------------------|
|-----------------------------------------------------------/7------------|

|----------------------------------------------------------|--|
|-----5----------------------------------------------------|--|
|--/4---6bbr--4bbr--2bbrp0---0-----4--6bbr--4--2bbrp0---0--|--|
|--------------------------0----/5--------------------2----|--|
|----------------------------------------------------------|--|
|----------------------------------------------------------|--|

|------------------------------------------------------------------------||
|-----------------------------------------------------------------14-----||
|----------------------------------------------------------12--14----13--||
|--2-------------------------------------8h10/12--10h12/14---------------||
|----0--------------2h4/6--4h6/8--6h8/10---------------------------------||
|------3p0h3--0h2h4------------------------------------------------------||

riffs on the pre-chorus
||-----------------------------------------------------------------|--|
||--17--17h15h13--13--12--12h10h8--8--10--10h8h6--6----------------|--|
||--------------------------------------------------7--7--5--3--0--|--|
||-----------------------------------------------------------------|--|
||-----------------------------------------------------------------|--|
||-----------------------------------------------------------------|--|

|----0---0---0----0----0-----|
|----------------------------|
|--4---6---9---11---13---14--|
|----------------------------|
|----------------------------|
|----------------------------|

little Italy....
   A                    E                   B                E
|--0-----------------|--0----------------|----------------|--0------------|
|--2-----------------|--0----------------|----------------|--0------------|
|--2-----------------|--1----------------|--4-------------|--1------------|
|--2-----------------|--2----------------|--4-------------|--2------------|
|--0-----------------|--2----------------|--2-------------|--2------------|
|--------------------|--0----------------|----------------|--0------------|

   A                    B
|--0-----------------|--------------------||
|--2-----------------|--------------------||
|--2-----------------|--4-----------------||
|--2-----------------|--4-----------------||
|--0-----------------|--2-----------------||
|--------------------|--------------------||


Play chorus then the song fades out....
comments
We did not receive enough feedback on this tab! Please rate:
print report bad tab
1 2 3 4 5
2 comments total.
0 reply
acerisano88 wrote on July 27 2010, 11:01 am

The main riff aint right. the other guy has it closer but both are still wrong

0 reply
castingcrowns7 wrote on January 4 2013, 08:51 pm

All the main riff really is is a simple blues riff.

I want to post or [tab]
guest
You may want to rate the tab now too:
select rating
Please do not post tabs as comments. Select "correction" instead!