Oops, an error
Loading. Please wait.

Cluster Pluck Part 1 Tab

10,496 views 9 this week
no commentswrite comment
1 2 3 4 5
x 4
add to favorites
launch autoscroll
font size
0
reset
how to read this tab
guitar tuner
Autoscroll
slow
fast
+/-
esc
set tempo
stop
Help us to improve Ultimate-Guitar.com Take our survey!
×
E-----------------------------------------------------------|
B-----------------------------------------------------------|
G---2p0---0h2-7p0-5p0-2----2p0---0---7p0-5p0-2----2p0---0---|
D-------2----------------------2---0------------------2---0-|
A-0----------------------0----------------------0-----------|
E-----------------------------------------------------------|


E---------------------5--------------------------------------|
B-------------------5---8-5---5------------------------------|
G-7p0-5p0---5-7b(9)---------7---7-5----------------2p0---0---|
D-----------------------------------7-5----------------2---0-|
A---------7------------------------------7-5-3-0-0-----------|
E------------------------------------------------------------|


E-----------------------------------------------------------|
B-----------------------------------------------------------|
G-7p0-5p0---2-----2p0---0---7p0-5p0-2---2p0---0---7p0-5-----|
D---------------------2---0-----------------2---0-------7---|
A---------0---0-0---------------------0---------------------|
E-----------------------------------------------------------|

E-------5---------------------------------------------------|
B---------8-5---5-------------------------------------------|
G-7b(9)-------7---8-7-5---5---------------7---5-----7---5---|
D-----------------------7---7-5p0-2p0-----------------------|
A-------------------------------------5/9---9---5/9---9-----|
E-----------------------------------------------------------|


E----------------------------------9-3----------------------|
B---------------------------8b(10)-----(7)r5--5p0-----------|
G-----7---5-3/4-3/4-4/5-5/7-----------------------0h2-5b(7)-|
D-----------------------------------------------------------|
A-5/9---9---------------------------------------------------|
E-----------------------------------------------------------|


E------------------------------------------------------------|
B------------------------------------------------------------|
G---5---------------------------2p0-----7---5-----9---7------|
D-7---7------------------------------------------------------|
A-------5/7-6p5p0-3p2---0-2-3-4-----5/9---9---5/9---9---8/10-|
E---------------------3--------------------------------------|

E------------------------------------------------------------|
B---------------------------11----11b(12)-12-12p10-----------|
G-10----8-------14-13-12-11------------------------12p9------|
D------------------------------11-11b(12)---------------12p9-|
A----10---10/14----------------------------------------------|
E------------------------------------------------------------|


E------------------------------------------------------------|
B------------------------------------------------------------|
G-----------------------------2p0---0---7p0---5p0---2----2p0-|
D---------------------------------2---0----------------------|
A-12p10-3-4-5-6-------------0---------------0-----0----0-----|
E---------------0-1-2-3b(4)----------------------------------|


E----------------------------------------------3-----------------|
B------------------------------------------0h3---6p3p0---2-------|
G---0---7p0---5p0---2----2p0---0---7p0---5-------------4---4p2p0-|
D-2---0----------------------2---0-------------------------------|
A-----------0-----0----0---------------0-------------------------|
E----------------------------------------------------------------|

E---------------------------------------------------------------|
B---------------------------------------------------------------|
G---0-----------------------2p0---0---7p5---5p0---2---2p0---0---|
D-4---4p2p0---0-----------------2---0-----7---------------2---0-|
A-----------4---4p2p0---------------------------0---0-----------|
E---------------------3b(5)-------------------------------------|


E-------------------------------------3/5-----------------------|
B-----------------------------------------8-6---6---------6-----|
G-7p0---5p0---2---2p0---0---7p0---5-----------6---8-6-------6---|
D---------------------2---0---------------------------9-6-----6-|
A-----0-----0---0---------------0---0---------------------------|
E---------------------------------------------------------------|


E------------|
B------------|
G-6----------|
D---9-6------|
A-------9\7--|
E------------|
Suggest correction
comments
print report bad tab
guest
You may want to rate the tab now too:
select rating
Wanna post a correction for this tab? Suggest correction