Oops, an error
Loading. Please wait.

Cluster Pluck Part 2 Tab

2,593 views 1 this week
no commentswrite comment
1 2 3 4 5
please rate
add to favorites
launch autoscroll
font size
0
reset
how to read this tab
guitar tuner
Tab Pro tools
  • play this tab
  • loop segment
  • change instrument
  • show fretboard
  • metronome
×
Best way to learn
"Cluster Pluck Part 2"
Autoscroll
slow
fast
+/-
esc
set tempo
stop
Contributor
Solo #1

E-15-12----12--------------------------------------------------------|
B-------15----13p12------------------10\-8p7------7------------------|
G-------------------14-12--------------------9-10---9-7-9--5h6-------|
D-------------------------14-12-9/11---------------------------7-5-7-|
A--------------------------------------------------------------------|
E--------------------------------------------------------------------|


E-------------------7--------------------------------------------------|
B-------------4/5-8---8-5---------2-2-------5-5--------6-6---------8-8-|
G---------5/6-------------6-4b(6)-----7b(9)-----8b(10)-----10b(12)-----|
D-----6/7--------------------------------------------------------------|
A-6/7------------------------------------------------------------------|
E----------------------------------------------------------------------|

                     Solo #2
E------------------  -------------------------------------------------|
B---------10-10-10-  -------5-8-5-------------------------------------|
G-12b(14)----------  -7b(9)-------8-7-5---7---5h6p5-------------------|
D------------------  -------------------7---7-------7-5-------------0-|
A------------------  -----------------------------------7-6-5-0-3h4---|
E------------------  -------------------------------------------------|

E------------------------------------------------------------------|
B-----------------------------------------------6---5-----8---7-10-|
G-----------------------------------------2------------------------|
D-1h2-1p0-----1p0---------------------2-4---5/7---5---7/9---7---11-|
A---------3h4-----3h4-0-----2---0-2/4------------------------------|
E-----------------------2p0---4------------------------------------|

Solo #3
E-----------------------5--------------------------------5---------|
B---2-----3-----5---------9/10-10-10-8\7-5---7---5---3/5-5-5\3-2---|
G---2-----4-----6-0h2/6---8/9--8--7--8\7-5---7---5h6-4/6---6\4-2---|
D-----X-X---X-X----------------------------7---7-----------------4-|
A-0----------------------------------------------------------------|
E------------------------------------------------------------------|


E-------------------------------------------|
B-2-----------------------------------------|
G-2-------2-----------------0-----------2---|
D---4p2---2---------------2-------0-0-4-----|
A-------4---3-2p0---0-3-3-------2---------0-|
E-----------------1-----------3-------------|

Solo #4
E---------------------------------------------17-14-------------|
B---------------------------------------------------17p14----14-|
G-------14-14----14-16b(18)-------14-14----14-------------16----|
D-14-16-------16------------14-16-------16----------------------|
A---------------------------------------------------------------|
E---------------------------------------------------------------|


E------------------------------------------------------------------|
B------------------------------------------------------------------|
G-17-16-14----14-------------14\12----12----11----9------7\5---0---|
D----------16----16p14-------------------------------------------5-|
A----------------------15h16-------14----14----12---10\9-----7-----|
E------------------------------------------------------------------|

                              Push neck forward then release
E-----------------------------------------------------------|
B-------------------------------0---------------------------|
G-----------------------------0-----------------------------|
D-0-2-0---------------------2-------------------------------|
A-------3-0bbn(3)r0-0-2-3h4---------------------------------|
E-----------------------------------------------------------|

E--------------------------------------------------------------------|
B---------------------------------------------------14----12---------|
G-2-4-4b(5)-(5)-4-4-2-2-4-4b(5)-(5)-(5)-4-2---------14----12---------|
D-2-4-4b(5)-(5)-4-4-2-2-4-4b(5)-(5)-(5)-4-2-0-4b(5)----14----14\7/14-|
A---------------------------------------------3b(4)------------------|
E--------------------------------------------------------------------|


E-------------------------------------------------------------------|
B-12----10--------9-8---7---7-5-----------------------1/2-----------|
G-13----11--------9-8---7---7-5-------7---5-----------1/2-----------|
D----14----12\7/9-----9---7-----7-5---7---5---------------4p0-5-6-7-|
A-----------------------------------7---7---7\5p0-3-----------------|
E---------------------------------------------------3---------------|


E------------------------------------------------------------------------|
B-7-5---7----------------------------------------------------------------|
G-7-5---7-5/6-----0-------------------------------5---5----5-5-----5---5-|
D-----7---4/5-----0-------------------------------5---5----5-5-----5---5-|
A-------------7-6---------------------------2-5/7---7----7-----5/7---7---|
E-------------------3\2/3p0-2b(3)r2p0-2b(3)------------------------------|


E-----------5-5----------------------------------------------------|
B-----------5-5-8-7-5---7-5------------------14---------10---------|
G-----5---5-----8-7-5---7-5h6--------16b(18)----(18)r16----(14)r12-|
D-----5---5-----------7-------7-5----------------------------------|
A-5/7---7-------------------------7/-------------------------------|
E------------------------------------------------------------------|


E------------------------------------------------------------------12-12-|
B----------------------------------3-----------------------12b(14)-------|
G------------------------------------4-2-4-----2-4-----------------------|
D-----0------0-----0-----0-----------------2h4-----3b(4)-0---------------|
A-4h5---4h5----4h5---4h5---2-0-2h4---------------------------------------|
E------------------------------------------------------------------------|


E-----------------10-10---------5-------------------|
B-(14)r12-10b(12)-------(12)r10---8-5---------------|
G-------------------------------------7-5-7-5b(6)---|
D-------------------------------------------------7-|
A---------------------------------------------------|
E---------------------------------------------------|
comments
We did not receive enough feedback on this tab! Please rate:
print report bad tab
1 2 3 4 5
I want to post or [tab]
guest
You may want to rate the tab now too:
select rating
Please do not post tabs as comments. Select "correction" instead!