Oops, an error
Loading. Please wait.

Huckleberry Jam Tab

5,895 views 9 this week
no commentswrite comment
1 2 3 4 5
accurate
x 4
add to favorites
launch autoscroll
font size
0
reset
how to read this tab
guitar tuner
Autoscroll
slow
fast
+/-
esc
set tempo
stop
Help us to improve Ultimate-Guitar.com Take our survey!
×
Author
Difficulty
advanced
----------------------------------------------------------------------------
                     Brad Paisley - Huckleberry Jam
----------------------------------------------------------------------------
Tabbed by: Brandon G
Email: terre.gable334@wku.edu

Tuning: Standard

::12/19/09 UPDATE:: Fixed a couple lines that I think work better for the song..

e|-----------------------------------------------|
B|-----------------------------------------------|
G|--------------------------5p2p0-2--------------|
D|--------------2-4p2p0---2------4---4p2p0---2---|
A|-------0-0-3h4-------3h4----------------3h4----|
E|--0-3b-----------------------------------------|

e|---------------------------------|
B|---------------------------------|
G|------------------------1-1-1~---|
D|---------2-4p2p0--------2-2-2~---|
A|--0-0-3h4-------3p2p0---2-2-2~---|
E|---------------------3b-0-0-0~---|

e|---------------------------------------12--10--9--7--5-----------|
B|-----------------------------------------------------------------|
G|-------------------------5~-----7~---/13--11--9--7--5-----7-5h6--|
D|---------2-4p2p0----2----5~-----7~----------------------7-7-5----|
A|--0-0-3h4-------3h4---5/7--5-7/9---------------------------------|
E|-----------------------------------------------------------------|

| /  slide up
| \  slide down
| h  hammer-on
| p  pull-off
| ~  vibrato
============================================================================
Suggest correction
comments
print report bad tab
guest
You may want to rate the tab now too:
select rating
Wanna post a correction for this tab? Suggest correction