Oops, an error
Loading. Please wait.

Im Still A Guy Tab

version 1
version 1

Solo

Whole song

12,759 views 9 this week
2 commentsread comments
1 2 3 4 5
excellent!
x 4
add to favorites
launch autoscroll
font size
0
reset
how to read this tab
guitar tuner
Tab Pro tools
  • play this tab
  • loop segment
  • change instrument
  • show fretboard
  • metronome
×
Best way to learn
"Im Still A Guy"
Autoscroll
slow
fast
+/-
esc
set tempo
stop
Contributor
        Trem. Pick
E-------------------------------------------------------|
B----------------------------------7-8/10-8p7---7-------|
G----------------------------------7-9/11-9p7---7-------|
D-------0--7---9-------0-----7-7--------------9---9p7---|
A-0-2-4-5--9--10---------7h9-----9--------------------9-|
E------------------2h3----------------------------------|


E------------------------0h2p0----------------------------|
B------------------------------3-0h2p0--------------------|
G--------------------------------------2-0h2p0------------|
D-7-X-7----------------------------------------2-0h2p0----|
A-------7b(8)r7-5b(6)r5--------------------------------0--|
E---------------------------------------------------------|


E-------------------|
B-------------------|
G-------------------|
D-------------------|
A-2b(3)r2-2b(3)r2-0-|
E-------------------|
comments
print report bad tab
2 comments total.
+1 reply
automaticher0 wrote on September 20 2010, 02:05 pm

Part of this solo is sped up on the album by a computer. Just listen to it and it's easy to tell it was played at a slower speed and sped up when mixed in.

0 reply
tictaczack17 wrote on December 16 2015, 07:23 pm

Good job!

I want to post or [tab]
guest
You may want to rate the tab now too:
select rating
Please do not post tabs as comments. Select "correction" instead!