Oops, an error
Loading. Please wait.

It Never Woulda Worked Out Anyway Tab

1,762 views 6 this week
no commentswrite comment
1 2 3 4 5
please rate
add to favorites
launch autoscroll
font size
0
reset
how to read this tab
guitar tuner
Autoscroll
slow
fast
+/-
esc
set tempo
stop
Help us to improve Ultimate-Guitar.com Take our survey!
×
Contributor
/   =   slide up                                   p   =   pulloff

h   =   hammer-on                                  \   =   slide down
Intro (main riff)

E------6-5--4--3----------------------|
B-----6---6--5--6-4p3-4-3-------------|
G--6/7-----7--6------5---5-4-3-3h5----|
D-----------------------------5---3---|
A-------------------------------------|
E-------------------------------------|

Lead Guitar


E--6-3-------------------------------------------------------------------1-------3-|
B-----6-3------------4-3------------------4-----5-4/5-4p2-4-2/3-2-----1-3-4\3---4--|
G--------6-5-3----------5-4p3------------4-----6---------3-------3---2-------4/5---|
D-------------5-4-3----------5-4p3------------5-------------------2/3--------------|
A---------------------------------4/5-5/6--6/7-------------------------------------|
E----------------------------------------------------------------------------------|


E--5p4-3--------------------------------------6---|
B-------6-5p4-3----------------------3-3-4/6--6---|
G------------5--5-3---------3-3-5p3h5-5-------6---|
D--------------7-5-5/6-5p3h5-5----------------5---|
A-------------------------------------------------|
E-------------------------------------------------|

outro
E------6-5--4--3---------------------------------|
B-----6---6--5--6-4p3-3p2p1------------------3---|
G--6/7-----7--6------5-----3p1p0-3p1p0-------3---|
D-------------------------------------3p1p0--3---|
A------------------------------------------1-1---|
E------------------------------------------------|
comments
We did not receive enough feedback on this tab! Please rate:
print report bad tab
1 2 3 4 5
I want to post or [tab]
guest
You may want to rate the tab now too:
select rating
Please do not post tabs as comments. Select "correction" instead!