Oops, an error
Loading. Please wait.

Love Is Never Ending Tab

754 views 3 this week
no commentswrite comment
1 2 3 4 5
3 more votes to show rating
add to favorites
launch autoscroll
font size
0
reset
how to read this tab
guitar tuner
Autoscroll
slow
fast
+/-
esc
set tempo
stop
Help us to improve Ultimate-Guitar.com Take our survey!
×
Author
Tuning: Standard
Capo: None

Chords:
A7  =   x02020
C   =   x35500
D   =   x05770
Em  =   022000
G   =   320033  
G/B =   x20033
G/F =   1x0033
G/f#=   2x0033
_____________________________________________________________________________


[INTRO]

(Acoustic)

  00:00-00:08
e|--------------------------------------------------------------------------|
B|---3-0---0-----------------------1p0--------------------------------------|
G|---0---2---2-0-----------------------2-0---------------------------0------|
D|---------------0h2-------------2------0--4h5p4p0-0-------------------2----|
A|-------------------3-----0h3p0------------------5--3p2p0-------1h2--------|
E|---------------------------------------------------------0h2h3------------|

                                     G
e|-----------------------------------3--------------------------------------|
B|-----------------------------------3--------------------------------------|
G|-----0--------0---------0-----0----0--------------------------------------|
D|---0----------0---------0-2p0------0--------------------------------------|
A|------------x---x-----x------------2--------------------------------------|
E|--------2/3-x---x-2/3-x------------3--------------------------------------|

_____________________________________________________________________________


(Electric)

  00:14-00:20
e|--------------------------------------------------------------------------|
B|--------------------------------------------------------------------------|
G|--------------------------------------------------------------------------|
D|-----2-4-5-4\0-0---0h2---------0-2-0--------------------------------------|
A|---2-------------2-----------2-------0---0h2------------------------------|
E|---------------------------3-----------3----------------------------------|

[VERSE]
  
  00:23-00:26                              00:28-00:30
e|-----------------------|                |---------------------------------|
B|-----------------------|                |---------------------------------|
G|-----------------------|                |---------------------------------|
D|-----2-4-5-4\0-0---0h2-| Seasons come   |-------0-2-0---------------------|
A|---2-------------2-----| and seasons go |-----2-------0---0h2-------------|
E|-----------------------|                |---3-----------3-----------------|

                      00:32-00:35
e|                   |------------------------------------------------------|
B|                   |------------------------------------------------------|
G|                   |------------------------------------------------------|
D| One day sun       |-----2-4-5-4\0-0---0h2--------------------------------|
A| the next day snow |---2-------------2------------------------------------|
E|                   |------------------------------------------------------|

                                  00:39-00:45
e|                               |------------------------------------------|
B|                               |------------------------------------------|
G|                               |------------------------------------------|
D| Flowers die and flowers grow  |---5-4-0---0h2--------0-2-0---------------|
A| but love is never ending..... |---------2----------2-------0---0h2-------|
E|                               |------------------3-----------3-----------|

  00:48-00:50                         00:53-00:55
e|---------------|                   |--------------------------------------|
B|---------------|                   |--------------------------------------|
G|---------------|                   |--------------------------------------|
D|---5-4-0---0h2-| You can't kill it |---2-0--------------------------------|
A|---------2-----| with good-bye     |-------0---0h2------------------------|
E|---------------|                   |---------3----------------------------|

                                    00:57-00:59
e|                                 |----------------------------------------|
B|                                 |----------------------------------------|
G|                                 |----------------------------------------|
D| It always finds a place to hide |---5-4-0---0h2--------------------------|
A|                                 |---------2------------------------------|
E|                                 |----------------------------------------|

                                  
Inside your heart for your whole life
C             D     G
Love is never ending...

[CHOURS]

G                             G/f#
When the lights have all gone down
                       G/F
It'll still be hanging round
                          C
Even when you think it's lost
        D         G
It can still be found
                           G/f#
When every memory has been made
                       G/F
And the pages start to fade
                           C
And every prayer you ever prayed 
      D    Em
Is Heaven bound
          D                C
When you think the ride is over
           G/B             A7
And you're back at the beginning

                                  01:31-01:38
e|                               |------------------------------------------|
B|                               |------------------------------------------|
G|                               |------------------------------------------|
D| Oh, love is never ending..... |---5-4-0---0h2----2-0---------------------|
A|                               |---------2------------0---0h2-------------|
E|                               |------------------------3-----------------|

[VERSE]

  01:40-01:43                            01:45-01:47
e|---------------|                      |-----------------------------------|
B|---------------|                      |-----------------------------------|
G|---------------|                      |-----------------------------------|
D|---5-4-0---0h2-| When a man and woman |---2-0-----------------------------|
A|---------2-----| start growing old    |-------0---0h2---------------------|
E|---------------|                      |---------3-------------------------|

                                      01:50-01:52
e|                                   |--------------------------------------|
B|                                   |--------------------------------------|
G|                                   |--------------------------------------|
D| The fire of passion may grow cold |---4/5-4/5-0---0h2--------------------|
A|                                   |-------------2------------------------|
E|                                   |--------------------------------------|


What they got still warms their soul
C             D     G
Love is never ending.....


[CHOURS]

G                             G/f#
When the lights have all gone down
                       G/F
It'll still be hanging round
                          C
Even when you think it's lost
        D         G
It can still be found
                           G/f#
When every memory has been made
                       G/F
And the pages start to fade
                           C
And every prayer you ever prayed 
      D    Em
Is Heaven bound
          D                C
When you think the ride is over
           G/B             A7
And you're back at the beginning
    C             D     
Oh, love is never ending

[BRIDGE]

          A7
It keeps going on and on
     C                     D
Long after we're all gone away

[SOLO]

  02:32-02:47
e|--------------------------------------------------------------------------|
B|--------------------------------------------------------------------------|
G|--------------------------------------------------------------------------|
D|-------5h7-7-7b9-7b9----8b9-8b9-7--7b9-7b9-5--5-5b6r5---------------------|
A|---5h7----------------5-------------------------------6b7-----------------|
E|--------------------------------------------------------------------------|

                                                                 02:47-02:50
e|---------------------------------------------------------------|----------|
B|---------------------------------------------------------------|----------|
G|---------------------7-----------------10-----------12-10p9\12-|-5-4------|
D|-----------5---5-8b9---8b9-8/9-10-9\7-----7/9-11/12------------|-----7-5--|
A|-------5-5---5-------------------------------------------------|---------7|
E|---5h7---------------------------------------------------------|----------|

  02:59-03:01                          03:04-03:06
e|-----------------|                  |-------------------------------------|
B|-----------------|                  |-------------------------------------|
G|-----------------|                  |-------------------------------------|
D|---5-4\0-0--0h2--| Time may change  |---2-0-------------------------------|
A|----------2------| what you believe |-------0---0h2-----------------------|
E|-----------------|                  |---------3---------------------------|

                                            03:08-03:10
e|                                         |--------------------------------|
B|                                         |--------------------------------|
G|                                         |--------------------------------|
D| But one day the truth will set you free |---5-4\0-0---0h2----------------|
A|                                         |-----------2--------------------|
E|                                         |--------------------------------|

                             C
Just have faith and you will see.....

                              03:19-03:26
e|                           |----------------------------------------------|
B|                           |----------------------------------------------|
G|                           |----------------------------------------------|
D| Love is never ending..... |---5-4-0---0h2----2-0-------------------------|
A|                           |---------2------------0---0h2-----------------|
E|                           |------------------------3---------------------|

                              03:28-03:35
e|                           |----------------------------------------------|
B|                           |----------------------------------------------|
G|                           |----------------------------------------------|
D| Love is never ending..... |---4-4b5-4-0---0h2----0h2-0-------------------|
A|                           |-------------2--------------0-----------------|
E|                           |------------------------------3---------------|

[OUTRO]

G -----
Suggest correction
Give kudos to tab author, rate the tab!
1 2 3 4 5
comments
print report bad tab
guest
You may want to rate the tab now too:
select rating
Wanna post a correction for this tab? Suggest correction