Oops, an error
Loading. Please wait.

Old Alabama bass

version 1
version 1

Whole song

  • My version of old alabama. not 100% as the record, but almost. makes fun.

Interactive

34 views 1 this week
no commentswrite comment
1 2 3 4 5
3 more votes to show rating
add to favorites
×
Save as Personal and add changes to this tab that will be seen only by you. Learn more ›
×
You can save this tab as Personal to edit and correct it or add notes. All changes will be seen only by you. Learn more »
launch autoscroll
font size
0
reset
guitar tuner
edit
Autoscroll
slow
fast
+/-
esc
set tempo
stop
About this tab version
My version of old alabama. not 100% as the record, but almost. makes fun. Was this info helpful? Yes No
[Intro]
G|-------12---12-9---------------12---12-9-----------------------------------|
D|-10-12-----------12------10-12-----------12--------------------------------|
A|---------------------------------------------------------------------------|
E|---------------------------------------------------------------------------|

G|-------12--------------------------12--------------------------------------|
D|-10-12-----------------------10-12-----------------------------------------|
A|----------10-10-x--10-10--------------10-10-x--10-10-----------------------|
E|---------------------------------------------------------------------------|

G|-------12--------------------------12--------------------------------------|
D|-10-12-----------------------10-12-----------------------------------------|
A|----------10-10-x--10-10--------------10-10-x--10-10-----------------------|
E|---------------------------------------------------------------------------|

G|---------------------------------------------------------------------------|
D|---------------------------------------------------------------------------|
A|---------------------------------0-1-2-3-3-3-3-3---------------------------|
E|-0-1-2-3-3-3-3-3-0-3-0-1-1-1-1-1-----------------0-1-2-3-3-3-3-3-----------|

G|---------------------------------------------------------------------------|
D|---------------------------------------------------------------------------|
A|---------------------------------0-1-2-3-3-3-3-3---------------------------|
E|-0-1-2-3-3-3-3-3-0-3-0-1-1-1-1-1-----------------0-1-2-3-3-3-3-5-0-1-2-3---|

[Verse] (x2)
G|---------------------------------------------------------------------------|
D|---------------------------------------------------------------------------|
A|-----------------------------0-1-3-3-3-3-3-3-3-3-3-3-3-3-3-3-3-3-----------|
E|-3-3-3-3-3-3-3-3-3-3-3-3-3-3-----------------------------------------------|

G|---------------------------------------------------------------------------|
D|---------------------------------------------------------------------------|
A|-5-5-5-5-5-5-5-5-5-5-5-5-7-5-7-5-7-7-7-7-7-7-7-7-8\3-----------------------|
E|---------------------------------------------------------------------------|

[Chorus]
G|---------------------------------------------------------------------------|
D|---------------------------------------------------------------------------|
A|-------------0-1-3-3-3-3-3-3-1-0-------------0-1-3-3-3-3-3-3-1-0-----------|
E|-3-3-3-0-1-1---------------------3-3-3-0-1-1-------------------------------|

G|---------------------------------------------------------------------------|
D|---------------------------------3-3-3-3-----------------------------------|
A|-------------2-3-5-5-5-5-5-5-5-5---------3--3--5----5----5-----------------|
E|-3-3-3-3-3-3---------------------------------------------------------------|

G|---------------------------------------------------------------------------|
D|---------------------------------------------------------------------------|
A|---------------------------------0-1-2-3-3-3-3-3---------------------------|
E|-0-1-2-3-3-3-3-3-0-3-0-1-1-1-1-1-----------------0-1-2-3-3-3-3-5-0-1-2-3---|

[Verse]
G|---------------------------------------------------------------------------|
D|---------------------------------------------------------------------------|
A|-----------------------------0-1-3-3-3-3-3-3-3-3-3-3-3-3-3-3-3-3-----------|
E|-3-3-3-3-3-3-3-3-3-3-3-3-3-3-----------------------------------------------|

G|---------------------------------------------------------------------------|
D|---------------------------------------------------------------------------|
A|-5-5-5-5-5-5-5-5-5-5-5-5-7-5-7-5-7-7-7-7-7-7-7-7-8\3-----------------------|
E|---------------------------------------------------------------------------|

[Chorus]
G|---------------------------------------------------------------------------|
D|---------------------------------------------------------------------------|
A|-------------0-1-3-3-3-3-3-3-1-0-------------0-1-3-3-3-3-3-3-1-0-----------|
E|-3-3-3-0-1-1---------------------3-3-3-0-1-1-------------------------------|

G|---------------------------------------------------------------------------|
D|---------------------------------3-3-3-3-----------------------------------|
A|-------------2-3-5-5-5-5-5-5-5-5---------3--3--5--5--5--5--5-5-5-5-7-5-----|
E|-3-3-3-3-3-3-----------------------------------------------------------8-5-|

G|---------------------------------------------------------------------------|
D|---------------------------------------------------------------------------|
A|---------------------------0-1-2-3-3-3-3-3---------------5/7-5-3-----------|
E|-3-3-3-3-3-3-3-3-1-1-1-1-1-----------------0-1-2-3-3-3-3---------5---------|

[Bridge]
G|---------------------------------------------------------------------------|
D|---------------------------------------------------------------------------|
A|-7-7-7-7-7-7-7-7-7-7-7-7-7-5-----------------------------------------------|
E|------------------------------5--8-8-8-8-8-8-8-8-8-8-8-8-8-8-8-7-----------|

G|---------------------------------------------------------------------------|
D|---------------------------------------------------------------------------|
A|---------------------------------------------------------------------------|
E|-5-5-7-7-8-8-10-10-5-5-7-7-8-8-10-0-10-10--8-8--7-7--5-5-------------------|

G|-------12--------------------------12--------------------------------------|
D|-10-12-----------------------10-12-----------------------------------------|
A|----------10-10-x--10-10--------------10-10-x--10-10-----------------------|
E|---------------------------------------------------------------------------|

G|-------12--------------------------12--------------------------------------|
D|-10-12-----------------------10-12-----------------------------------------|
A|----------10-10-x--10-10--------------10-10-x--10-10-----------------------|
E|---------------------------------------------------------------------------|

G|-------12--------------------------12--------------------------------------|
D|-10-12-----------------------10-12-----------------------------------------|
A|----------10-10-x--10-10--------------10-10-x--10-10-----------------------|
E|---------------------------------------------------------------------------|

G|-------------7-------------------------------------------------------------|
D|-7--5--7--5-----10--9--7---------------------------------------------------|
A|---------------------------------------------------------------------------|
E|---------------------------------------------------------------------------|

[Chorus]
G|---------------------------------------------------------------------------|
D|---------------------------------------------------------------------------|
A|-------------0-1-3-3-3-3-3-3-1-0-------------0-1-3-3-3-3-3-3-1-0-----------|
E|-3-3-3-0-1-1---------------------3-3-3-0-1-1-------------------------------|

G|---------------------------------------------------------------------------|
D|---------------------------------3-3-3-3-----------------------------------|
A|-------------2-3-5-5-5-5-5-5-5-5---------3--3--5-5-5-5-5-5-3---------------|
E|-3-3-3-3-3-3-------------------------------------------------5-------------|

G|---------------------------------------------------------------------------|
D|---------------------------------------------------------------------------|
A|-------------0-1-3-3-3-3-3-3-1-0-------------0-1-3-3-3-3-3-3-1-0-----------|
E|-3-3-3-0-1-1---------------------3-3-3-0-1-1-------------------------------|

G|---------------------------------------------------------------------------|
D|---------------------------------3-3-3-3-----------------------------------|
A|-------------2-3-5-5-5-5-5-5-5-5---------3--3---5---5---5------------------|
E|-3-3-3-3-3-3---------------------------------------------------------------|


G|---------------------------------------------------------------------------|
D|---------------------------------------------5-----------------------------|
A|-5--3--2--0---5--3--2--0---5-3-2-0--5-3-2-0--------------------------------|
E|---------------------------------------------------------------------------|

[Outro]
G|---------------------------------------------------------------------------|
D|-5--5--3--3----------------------------------------------------------------|
A|-------------3--3--5-3-5-3-------------3--3--5-3-5-3-----------------------|
E|---------------------------3--3--1--1--------------------------------------|

G|---------------------------------------------------------------------------|
D|-5--5--3--3-----------------------------5-----5---2-3----------------------|
A|-------------3--3--5-3-5-3--5--3--5--3-----3----3--------------------------|
E|---------------------------------------------------------------------------|

G|---------------------------------------------------------------------------|
D|-5--5--3--3----------------------------------------------------------------|
A|-------------3--3--5-3-5-3-------------3--3--5-3-5-3-----------------------|
E|---------------------------3--3--1--1--------------------------------------|

G|---------------------------------------------------------------------------|
D|-5--5--3--3-----------------------------5-----5---2-3----------------------|
A|-------------3--3--5-3-5-3--5--3--5--3-----3----3--------------------------|
E|---------------------------------------------------------------------------|

G|---------------------------------------------------------------------------|
D|-5--5--3--3----------------------------------------------------------------|
A|-------------3--3--5-3-5-3-------------3--3--5-3-5-3-----------------------|
E|---------------------------3--3--1--1--------------------------------------|

G|---------------------------------------------------------------------------|
D|-5--5--3--3-----------------5-----5----------------------------------------|
A|-------------3--3--5-3-5-3-----3-----3-------------------------------------|
E|---------------------------------------------------------------------------|

G|---------------------------------------------------------------------------|
D|-5-5-5--5-5-x-5--5-5-5--5-5-x-5--5-5-5--5-5-x-5--5-5-5------5-5-5----------|
A|---------------------------------------------------------------------------|
E|---------------------------------------------------------------------------|


************************************

| x  Dead note
| \  Slide down
| /  Slide up

************************************

            
            
Suggest correction
Creating personal tab
Creating personal tab
You can edit any tab online and save it as your Personal.

You can edit, replace or remove any tab part or add personal notes – all changes will be seen only by you.

Personal tabs can be accessed anytime from any device, even offline.
Learn more »
Give kudos to tab author, rate the tab!
1 2 3 4 5
comments
print report bad tab
guest
You may want to rate the tab now too:
select rating
Wanna post a correction for this tab? Suggest correction