Oops, an error
Loading. Please wait.

Shes Everything intro tab

version 1
version 1

Intro

Whole song

Interactive

53,506 views 33 this week
10 commentsread comments
1 2 3 4 5
x 14
add to favorites
×
Save as Personal and add changes to this tab that will be seen only by you. Learn more ›
×
You can save this tab as Personal to edit and correct it or add notes. All changes will be seen only by you. Learn more »
launch autoscroll
font size
0
reset
how to read this tab
guitar tuner
edit
Autoscroll
slow
fast
+/-
esc
set tempo
stop
Author
Difficulty
This is just the intro to the song, I am currently working out the rest of the song.  
let me know if you thing something is incorrect. Thanks

e---------------------------------------------------------------------------|
B------------------1--1--0--1---------------------------------1--1--0---1---|
G----------------0-----------------------------------------0----------------|
D-----------2------------------------------------------2--------------------|
A-----3-----------------------------------------0---------------------------|
E---------------------------------------------------------------------------|

|e--------------------------------------------------------3------------------|
|B---------------------1--1--0--1-----------------------------0--------------|
|-----------------2----------------------------------------------------------|
|------------3------------------------------0--------------------------------|
|-------3------------------------------2-------------------------------------|
|--------------------------------3-------------------------------------------|

*Play twice

            
            
Suggest correction
Creating personal tab
Creating personal tab
You can edit any tab online and save it as your Personal.

You can edit, replace or remove any tab part or add personal notes – all changes will be seen only by you.

Personal tabs can be accessed anytime from any device, even offline.
Learn more »
comments
print report bad tab
10 comments total. Showing first comments.
0 reply
rawdawg171 10 Jan 27, 2007 06:48 PM

Is this the actual solo tab or the background picking???

0 reply
jon2117 42 Jan 28, 2007 09:00 AM

It's the intro solo. The chords are very similar. I plan to post the chords soon.

0 reply
DarkDallasNight 182 Feb 06, 2007 02:51 PM

dude can you tab the whole solo plz man

guest
You may want to rate the tab now too:
select rating
Wanna post a correction for this tab? Suggest correction