Oops, an error
Loading. Please wait.

Shes Everything tab

version 3
version 3

Whole song

Interactive

502 views 15 this week
no commentswrite comment
1 2 3 4 5
3 more votes to show rating
add to favorites
×
Save as Personal and add changes to this tab that will be seen only by you. Learn more ›
×
You can save this tab as Personal to edit and correct it or add notes. All changes will be seen only by you. Learn more »
launch autoscroll
font size
0
reset
how to read this tab
guitar tuner
edit
Autoscroll
slow
fast
+/-
esc
set tempo
stop
Author
Difficulty
-----------------------------------------------------------------------------------------------------------
                             She's Everything (Hits Alive Version) - Brad Paisley
-----------------------------------------------------------------------------------------------------------
Tabbed by: Reilly Donnelly

E-mail: Reillydonnelly@outlook.com

Hey guys! This is one of my favourite songs so i took the liberty of tabbing out this monster, after
countless hours i got most of it done! I would much appreciate it if you checked out my Youtube channel
@LeadCountry (https://www.youtube.com/channel/UCZ__GzgeVernEjOfGKvRuGg) Also i have a video of me playing 
this tab so it might help you guys out!

Intro
e|---------------------------------------------------------------------------|
B|--------------------------------------------6-5----------------------------|
G|------------------5-7\-------12fb---------------7br 5---5h7-5--------------|
D|------------5-5/7-----------------------5h7-----------7--------------------|
A|------3-5/7----------------------------------------------------------------|
E|---------------------------------------------------------------------------|

e|----8------------15--13-12----------------------------------------------------|
B|--8---h10p8----8-----------13----15-13-12----12-------------------------------|
G|------------------------------12----------------12----14-12-------------------|
D|------------------------------------------14-------12----------15-14-12-------|
A|------------------------------------------------------------12----------10-7--|
E|------------------------------------------------------------------------------|

e|----------------------------------------------------------------------------|
B|-----------5h8-6p5----------------------------------------------------------|
G|---------5-----------7\5-4--------------------------------------------------|
D|---0---5-----------5--------5\3-2-------------------------------------------|
A|-0---0----------------------------3/5\3-------------------------------------|
E|----------------------------------------3/5\3--1----------------------------|

Pre-Verse ( If you ask me, who is she......)
e|---------------------------------------------------------------------------------|
B|----------------------------------------------------------------7/10-------------|
G|----------------------------5-5h7-5-----5----5--------2--------------7------(12)-|
D|--5--5------------------5h7---------5h7------7-------2------3----------8/9--(12)-|
A|--5--5--------------5h7----------------------8------0------3---------------------|
E|--------3\1-----------------------------------------------1----------------------|

Verse (C) x2              (Am) x2          (F)
e|---------------------------------------------------------------------------------|
B|-------------1------------------1-------------------1-----------------1----------|
G|---------0-----0---0--------2-----2---2--------2------2---2------2------2-0h2----|
D|-------2---2-----2--------2---2-----2--------3---3------3------3---3-------------|
A|-----3------------------0------------------3-----------------3-------------------|
E|---------------------------------------------------------------------------------|
  (G)                         Riff (On C Chord)
e|--3-----3-3----3-------------------------------------------------------------|
B|--0---1---0------------------------------------------------------------------|
G|--0--0----0--0--------------------0------------------------------------------|
D|--0-------0---------X2--------0h2--------------------------------------------|
A|--2-------2------------------3-----------------------------------------------|
E|--3-------3------------------------------------------------------------------|

Chorus 1 (F)
e|---------------------------------------------------------------------------|
B|--------6-------5--3pbr----------------------------------------------------|
G|--------5---------------5-5-----------5-4-2---------5-7-7fb-7fb-7p5--------|
D|----------------------------------5h7------------/7-----------------7------|
A|---------------------------------------------------------------------------|
E|---------------------------------------------------------------------------|

Lil Solo
e|---------------------------------------------------------------------------|
B|---------------------------------------------------------------------------|
G|---------5-4-5------5-4-5-------5-7-7-7fbr---------------------------------|
D|-----4/5-------4/5---------4/5---------------------------------------------|
A|---------------------------------------------------------------------------|
E|---------------------------------------------------------------------------|

Verse (Same as first)


Chorus
e|-----------------------------------------------------8-8-8-8fbr-10p8--------|
B|--------6-----------------------------------------/8-----------------10-----|
G|--------5-----------5-5-------------5-4-2-----------------------------------|
D|--------7-------5h7-------------5h7-----------------------------------------|
A|--------8-------------------------------------------------------------------|
E|----------------------------------------------------------------------------|
 
Solo
e|---------------------------------------------------------------------------|
B|-----8-8h10-8-10---------------------------8fb-8h10---------13-15fb-15fb---|
G|--/7-------------5-7/9--------7fbr-5-7fb------------7\--/12----------------|
D|-----------------------5-5-5-------------5---------------------------------|
A|---------------------------------------------------------------------------|
E|---------------------------------------------------------------------------|

e|-----15-17-17fb-17pb-15-17----17pb-15----15----15fbr-13----------------------------|
B|-/15-----------------------15---------18----13----------15fbr-13-15fb-15fb-15ffb---|
G|-----------------------------------------------------------------------------------|
D|-----------------------------------------------------------------------------------|
A|-----------------------------------------------------------------------------------|
E|-----------------------------------------------------------------------------------|

e|---------------------------------------------------------------------------|
B|-----15fb-13-----------13--------------------------------------------------|
G|-/12---------14\---/12----12h14-14fbr-12--/9-7-----------------------------|
D|---------------------------------------------------------------------------|
A|---------------------------------------------------------------------------|
E|---------------------------------------------------------------------------|

Verse (Hold on G)


Chorus
e|----------------------------------------------------------------------------|
B|--------6-------------------------------------------------------------------|
G|--------5-----------5-5-------------5-4-2-----------------------------------|
D|--------7-------5h7-------------5h7-----------------------------------------|
A|--------8-------------------------------------------------------------------|
E|----------------------------------------------------------------------------|
 
Outro

e|----------10p8-7--------------------------------------------------------------|
B|------8----------10-8---10-8--------------------------------------------------|
G|--7h8---9-------------9------9-7-5---7fb-7fb-5-----------------5-7/9----------|
D|-----------------------------------7-----------------------5-7----------------|
A|-----------------------------------------------------3-5-7--------------------|
E|------------------------------------------------------------------------------|

e|--5-----------------------------------------15-------------15---------------------------------|
B|-----------------------------------------------13-15-15/17-------------13-----13-13-12-10-----|
G|----7p5---7-5---5h7-------------------------------------------12--10-12-----12-----------12---|
D|--------7-----5-----------12-12-------------------------------------------10------------------|
A|--------------------------------12p10-12p10------------------------------------------------/10|
E|----------------------------------------------------------------------------------------------|

e|-----------------------------------------------15-17-15-----20-19-17--------------------------|
B|--------------------8-----------------13-15/17-----------------------20--18-17-15-------------|
G|-----5-7-5-----9-10---/10-5-7p5----------------------------------------17---------17-14-/19---|
D|-5/7------------------------------------------------------------------------------------------|
A|----------------------------------------------------------------------------------------------|
E|----------------------------------------------------------------------------------------------|

e|----12h13--12------------------------------------------------------------------|
B|--------------15-----15-----17h18----17h20-------------------------------5-8---|
G|-12---------------12------17-------17---------12--10--9----5\4---4-5p0-7-------|
D|----------------------------------------------10--7---5------------------------|
A|-------------------------------------------------------------------------------|
E|-------------------------------------------------------------------------------|

e|------------------------------------------------------------------------------|
B|--8/10-12-13--------10----------------------------------5-8-5---6p5-----------|
G|-------------9--/12---/9-12-------7-7-7---12-10-9------5------------7---------|
D|-------------------------------5--7-7-7---------------5-------7---------------|
A|------------------------------------------------------------------------------|
E|------------------------------------------------------------------------------|

e|----------------------------------------------------------------------------------------------|
B|--------------10-12-13\-------13-15fb-15^-15^-15^-15fb-15^-15^-15fb-15pb-13-15ffb-15fbr-13-15\|
G|-5--7--9--/12-------------/14-----------------------------------------------------------------|
D|----------------------------------------------------------------------------------------------|
A|----------------------------------------------------------------------------------------------|
E|----------------------------------------------------------------------------------------------|

e|-------8-10-8------------------------------------------------------13-15---15-15fb-15fb-15-15-|
B|---8-10------12-8--------10-8--------------------------------15-17-------13-------------------|
G|------------------10-9-10-----10--9-0----------9-12-14-16-17----------------------------------|
D|/10-----------------------------------12-10-/10-----------------------------------------------|
A|----------------------------------------------------------------------------------------------|
E|----------------------------------------------------------------------------------------------|
                                                                (5:47)
e|----------------15-15-13-----/13-15-17-19-20-------------------------------|
B|-15fb---15pb-13------------------------------17----20fb-20fb---------------|
G|------------------------------------------------17-------------------------|
D|---------------------------------------------------------------------------|
A|---------------------------------------------------------------------------|
E|---------------------------------------------------------------------------|



************************************

| /   slide up
| \   slide down
| h   hammer-on
| p   pull-off
| ~   vibrato
| +   harmonic
| x   Mute note
| b   Bend
| fb  Full Bend
| fbr Full bend Release
| ffb Bend a lot
| pb  Pre-bend
| br  Bend release
| pbr Pre-bend release
| brb Bend release bend

************************************

            
            
Suggest correction
Creating personal tab
Creating personal tab
You can edit any tab online and save it as your Personal.

You can edit, replace or remove any tab part or add personal notes – all changes will be seen only by you.

Personal tabs can be accessed anytime from any device, even offline.
Learn more »
Give kudos to tab author, rate the tab!
1 2 3 4 5
comments
print report bad tab
guest
You may want to rate the tab now too:
select rating
Wanna post a correction for this tab? Suggest correction