Oops, an error
Loading. Please wait.

Southern Comfort Zone Tab

version 1
version 1

Whole song

Interactive

7,589 views 12 this week
no commentswrite comment
1 2 3 4 5
accurate
x 6
add to favorites
launch autoscroll
font size
0
reset
how to read this tab
guitar tuner
Tab Pro tools
  • play this tab
  • loop segment
  • change instrument
  • show fretboard
  • metronome
×
Best way to learn
"Southern Comfort Zone"
Autoscroll
slow
fast
+/-
esc
set tempo
stop
Contributor
Difficulty
intermediate
                                                                            X3
e|------------------|------------------|------------------|-----------------||
B|------------------|------------------|------------------|-----------------||
G|------------------|------------------|------------------|-----------------||
D|---66664-44-4-444-|---66664-44-4-444-|---66664-44-4-444-|---66664-44-4-444||
A|---77777-77-7-777-|---77777-77-7-777-|-0-00000-00-0-000-|-0-00000-00-0-000||
E|-0--0000-00-0-000-|-0--0000-00-0-000-|------------------|-----------------||

Verse
e|------------------|------------------|------------------|------------------|
B|------------------|------------------|------------------|------------------|
G|------------------|------------------|------------------|------------------|
D|---66664-44-4-444-|---66664-44-4-444-|---66664-44-4-444-|---66664-44-4-444-|
A|---77777-77-7-777-|---77777-77-7-777-|-0-00000-00-0-000-|-0-00000-00-0-000-|
E|-0--0000-00-0-000-|-0--0000-00-0-000-|------------------|------------------|

e|------------------|------------------|------------------|------------------|
B|------------------|------------------|------------------|------------------|
G|------------------|------------------|------------------|------------------|
D|---66664-44-4-444-|---66664-44-4-444-|---66664-44-4-444-|---66664-44-4-444-|
A|---77777-77-7-777-|---77777-77-7-777-|---77777-77-7-777-|---77777-77-7-777-|
E|-0--0000-00-0-000-|-0--0000-00-0-000-|-0--0000-00-0-000-|-0--0000-00-0-000-|

                                                                            X2
e|------------------|------------------|------------------|-----------------||
B|------------------|------------------|------------------|-----------------||
G|------------------|------------------|------------------|-----------------||
D|---66664-44-4-444-|---66664-44-4-444-|---66664-44-4-444-|---66664-44-4-444||
A|-0-00000-00-0-000-|-0-00000-00-0-000-|---77777-77-7-777-|---77777-77-7-777||
E|------------------|------------------|-0--0000-00-0-000-|-0--0000-00-0-000||

Main
  C#m                                   B
e|---44444-44-4-444-|---44444-44-4-444-|-------------------------------------|
B|---55555-55-5-555-|---55555-55-5-555-|---44444-44-4-444-|---44444-44-4-444-|
G|---66666-66-6-666-|---66666-66-6-666-|---44444-44-4-444-|---44444-44-4-444-|
D|---66666-66-6-666-|---66666-66-6-666-|---44444-44-4-444-|---44444-44-4-444-|
A|-4--4444-44-4-444-|-4--4444-44-4-444-|-2--2222-22-2-222-|-2--2222-22-2-222-|
E|-------------------------------------|-------------------------------------|

  A                                     A
e|---00000-00-0-000-|------------------|---00000-00-0-000-|------------------|
B|---22222-22-2-222-|------------------|---22222-22-2-222-|------------------|
G|---22222-22-2-222-|------------------|---22222-22-2-222-|------------------|
D|---22222-22-2-222-|---66664-44-4-444-|---22222-22-2-222-|---66664-44-4-444-|
A|-0--0000-00-0-000-|---77777-77-7-777-|-0--0000-00-0-000-|---77777-77-7-777-|
E|------------------|-0--0000-00-0-000-|------------------|-0--0000-00-0-000-|

  A                  C#m                D        A
e|---00000-00-0-000-|---44444-44-4-444-|---------00-0-000-|
B|---22222-22-2-222-|---55555-55-5-555-|---77777-22-2-222-|
G|---22222-22-2-222-|---66666-66-6-666-|---77777-22-2-222-|
D|---22222-22-2-222-|---66666-66-6-666-|---77777-22-2-222-|
A|-0--0000-00-0-000-|-4--4444-44-4-444-|-5--5555-00-0-000-|
E|------------------|------------------|------------------|

Verse
e|------------------|------------------|------------------|------------------|
B|------------------|------------------|------------------|------------------|
G|------------------|------------------|------------------|------------------|
D|---66664-44-4-444-|---66664-44-4-444-|---66664-44-4-444-|---66664-44-4-444-|
A|---77777-77-7-777-|---77777-77-7-777-|-0-00000-00-0-000-|-0-00000-00-0-000-|
E|-0--0000-00-0-000-|-0--0000-00-0-000-|------------------|------------------|

e|------------------|------------------|------------------|------------------|
B|------------------|------------------|------------------|------------------|
G|------------------|------------------|------------------|------------------|
D|---66664-44-4-444-|---66664-44-4-444-|---66664-44-4-444-|---66664-44-4-444-|
A|---77777-77-7-777-|---77777-77-7-777-|---77777-77-7-777-|---77777-77-7-777-|
E|-0--0000-00-0-000-|-0--0000-00-0-000-|-0--0000-00-0-000-|-0--0000-00-0-000-|

                                                                            X2
e|------------------|------------------|------------------|-----------------||
B|------------------|------------------|------------------|-----------------||
G|------------------|------------------|------------------|-----------------||
D|---66664-44-4-444-|---66664-44-4-444-|---66664-44-4-444-|---66664-44-4-444||
A|-0-00000-00-0-000-|-0-00000-00-0-000-|---77777-77-7-777-|---77777-77-7-777||
E|------------------|------------------|-0--0000-00-0-000-|-0--0000-00-0-000||

Main
  C#m                                   B
e|---44444-44-4-444-|---44444-44-4-444-|------------------|------------------|
B|---55555-55-5-555-|---55555-55-5-555-|---44444-44-4-444-|------------------|
G|---66666-66-6-666-|---66666-66-6-666-|---44444-44-4-444-|-4--6--8--9-11-13-|
D|---66666-66-6-666-|---66666-66-6-666-|---44444-44-4-444-|-4--6--8--9-11-13-|
A|-4--4444-44-4-444-|-4--4444-44-4-444-|-2--2222-22-2-222-|-2--4--6--7--9-11-|
E|-------------------------------------|------------------|------------------|

  A                                     A
e|---00000-00-0-000-|------------------|---00000-00-0-000-|------------------|
B|---22222-22-2-222-|------------------|---22222-22-2-222-|------------------|
G|---22222-22-2-222-|------------------|---22222-22-2-222-|------------------|
D|---22222-22-2-222-|---66664-44-4-444-|---22222-22-2-222-|---66664-44-4-444-|
A|-0--0000-00-0-000-|---77777-77-7-777-|-0--0000-00-0-000-|---77777-77-7-777-|
E|------------------|-0--0000-00-0-000-|------------------|-0--0000-00-0-000-|

  A                  C#m                D        A
e|---00000-00-0-000-|---44444-44-4-444-|---------00-0-000-|------------------|
B|---22222-22-2-222-|---55555-55-5-555-|---77777-22-2-222-|------------------|
G|---22222-22-2-222-|---66666-66-6-666-|---77777-22-2-222-|------------------|
D|---22222-22-2-222-|---66666-66-6-666-|---77777-22-2-222-|---66664-44-4-444-|
A|-0--0000-00-0-000-|-4--4444-44-4-444-|-5--5555-00-0-000-|---77777-77-7-777-|
E|------------------|------------------|------------------|-0--0000-00-0-000-|

Bridge
                                                                            X2
e|---44444-44-4-444-|------------------|---22222-22-2-222-|---00000-00-0-000||
B|---55555-55-5-555-|---44444-44-4-444-|---22222-22-2-222-|---22222-22-2-222||
G|---66666-66-6-666-|---44444-44-4-444-|---33333-33-3-333-|---22222-22-2-222||
D|---66666-66-6-666-|---44444-44-4-444-|---44444-44-4-444-|---22222-22-2-222||
A|-4--4444-44-4-444-|-2--2222-22-2-222-|---44444-44-4-444-|-0--0000-00-0-000||
E|-------------------------------------|-2--2222-22-2-222-|-----------------||

To Solo in C Pentatonic 


************************************

| /   slide up
| \   slide down
| h   hammer-on
| p   pull-off
| ~   vibrato
| +   harmonic
| x   Mute note
| b   Bend
| pb  Pre-bend
| br  Bend release
| pbr Pre-bend release
| brb Bend release bend

************************************
comments
print report bad tab
I want to post or [tab]
guest
You may want to rate the tab now too:
select rating
Please do not post tabs as comments. Select "correction" instead!