Oops, an error
Loading. Please wait.

Whiskey Lullaby Tab

version 1
version 1

Whole song

Interactive

104,520 views 66 this week
5 commentsread comments
1 2 3 4 5
x 25
add to favorites
launch autoscroll
font size
0
reset
how to read this tab
guitar tuner
×
Best way to learn
"Whiskey Lullaby"
Autoscroll
slow
fast
+/-
esc
set tempo
stop
this should be right, i spent like 2 hours figuring it out and i played along
to the music video on CMT. It also sounds cool in the second verse if you play
with both e and B on the same frets. Enjoy


e-------------------------------------------|
B-5^7-7-5-3-2-0-------5^7-7-5-3-5-7-8~~~^10-|
G-------------------------------------------|
D-------------------------------------------|
A-------------------------------------------|
E-------------------------------------------|

e-------------------------------------------|
B-5^7-7-5-3-2-0-------5^7-7-5-3-5-7-8~~~^10-|
G-------------------------------------------|
D-------------------------------------------|
A-------------------------------------------|
E-------------------------------------------|



************************************

~~~~ - let ring
^ - hammer on

************************************
Suggest correction
comments
print report bad tab
5 comments total. Showing first comments.
+5 reply
Digital_Spirit 10 Nov 24, 2004 07:00 PM

E--0h22 0-------0h220---23-------------------------------------
B----------32-0-------3----------------------------------------
G--------------------------------------------------------------
D--------------------------------------------------------------
A--------------------------------------------------------------
E--------------------------------------------------------------

0 reply
tintoenail 10 Nov 18, 2007 08:13 PM

sounds great

0 reply
dakota154 34 Jul 22, 2009 12:48 AM

This is perfect, and so is the person below me.
Because yall are playing the same notes, yours is just a higher octive.

guest
You may want to rate the tab now too:
select rating
Wanna post a correction for this tab? Suggest correction