Oops, an error
Loading. Please wait.

Mr Johnson Cries chords

31 views 3 this week
no commentswrite comment
1 2 3 4 5
3 more votes to show rating
add to favorites
×
Save as Personal and add changes to this tab that will be seen only by you. Learn more ›
×
You can save this tab as Personal to edit and correct it or add notes. All changes will be seen only by you. Learn more »
launch autoscroll
font size
0
reset
transpose
0
reset
display chords
guitar tuner
edit
Autoscroll
slow
fast
+/-
esc
set tempo
stop
Author
Unregistered
Strumming
There is no strumming pattern for this song yet. and get +5 IQ
[Intro]

    F#
e|---------------------------------|
B|---------------------------------|
G|---------------------------------|
D|---4-4-------------8-8-6-4-----4-|
A|-------6-6-4-4-2-2---------6-4---|
E|---------------------------------|


[Verse]

F#         B                F#
Mr Johnson didn't sleep too well last night
   B                F#          B     F#  B
he dreamt about the early days again
F#             B               F#
looking in his mirror, feeling sad because
   B                  F#    B  F#
he looked much better then


[Chorus]

                 Ebm
He played his guitar
       F#
what a star
               Ebm                        G#
he broke every heart, his clothes were so smart
B          C#
mr Johnson cries when
B                               C#
he recalls the days when he was everybody's face


F# (intro)


[Verse]

Mr Johnson takes a walk
he passes by the record store and sighs
he considers entering but hesitates, it's silly
cause it's just because he won't be recognized


[Chorus]

                 Ebm
He played his guitar
       F#
what a star
               Ebm                        G#
he broke every heart, his clothes were so smart
B          C#
mr Johnson cries when
B                               C#
he recalls the days when he was everybody's face


[Solo]

e|--------------------------------------------------------------|
B|--------------------------------------------------------------|
G|--------------------------------------------------------------|
D|-------------4-3-1---------------4-3-1--------------8-6---6---|
A|------1-4-6--------4-------1-4-6-------4------1-4-6-----9-----|
E|--2-2------------------2-2----------------2-2-----------------|

E|--------------------------------------------------|
B|--------------------------------------------------|
G|--8---------10-----------8---------10----------10-|
D|----9----9-----11----11----9----9-----11----11----|
A|------11----------11---------11----------11-------|
E|--------------------------------------------------|

Mr Johnson, humpty-dumpty, sat upon the wall
and had a great fall (had a great fall)
and all the record companies and fat production managers
could not get mr Johnson together again


[Outro]

                 Ebm
He played his guitar
       F#
what a star
               Ebm                        G#
he broke every heart, his clothes were so smart
B          C#
mr Johnson cries when
B                                           C#
he recalls the days when he was everybody's face
B                                           C#       F#
he recalls the days when he was everybody's face

            
            
Suggest correction
Creating personal tab
Creating personal tab
You can edit any tab online and save it as your Personal.

You can edit, replace or remove any tab part or add personal notes – all changes will be seen only by you.

Personal tabs can be accessed anytime from any device, even offline.
Learn more »
Give kudos to tab author, rate the tab!
1 2 3 4 5
comments
print report bad tab
guest
Wanna post a correction for this tab? Suggest correction