Oops, an error
Loading. Please wait.

Positive People Bass Tab

4 views 1 this week
no commentswrite comment
1 2 3 4 5
3 more votes to show rating
add to favorites
launch autoscroll
font size
0
reset
guitar tuner
Autoscroll
slow
fast
+/-
esc
set tempo
stop
Help us to improve Ultimate-Guitar.com Take our survey!
×
Author
Difficulty
novice
About this tab version
First bass tab of this song. Was this info helpful? Yes No
[Verse]
0:13
G|------------------------------------------------------|
D|------------------------------------------------------|          x4
A|---------------7-7-7--5-7-8--8--8--8-7-5-5-5--5-5-5-7-|
E|-5--5--5--5-5-5---------------------------------------|

G|---------------------------------------------------------------|
D|---------------------------------------------------------------|
A|---------------------------------------------------------------|
E|-5\-5\-5\-5\-5\-5\-5\-5\--5--5--5--5--5--5--5--5--5-5-5-5-5-5~-|


[Chorus]
0:57
G|-----------------------|
D|-----------------5-5-5-|       x15
A|-----------------------|
E|-5\--5\--5\--5\--------|

[Verse]
1:53
G|-----------------------------|
D|-----------------------------|
A|-8--8--8--8-7-5-5-5--5-5-5-7-|
E|-----------------------------|

G|------------------------------------------------------|
D|------------------------------------------------------|          x4
A|---------------7-7-7--5-7-8--8--8--8-7-5-5-5--5-5-5-7-|
E|-5--5--5--5-5-5---------------------------------------|

G|----------------|
D|----------------|      x3
A|----------------|
E|-5\--5\--5\--5\-|

G|-----------------------|
D|-----------------5-5-5-|
A|-----------------------|
E|-5\--5\--5\--5\--------|

G|----------------|
D|----------------|      x4
A|----------------|
E|-5\--5\--5\--5\-|

G|-----------------------|
D|-----------------5-5-5-|     x12
A|-----------------------|
E|-5\--5\--5\--5\--------|

[Verse]
3:32
G|-----------------------------|
D|-----------------------------|
A|-8--8--8--8-7-5-5-5--5-5-5-7-|
E|-----------------------------|

G|------------------------------------------------------|
D|------------------------------------------------------|          x12
A|---------------7-7-7--5-7-8--8--8--8-7-5-5-5--5-5-5-7-|
E|-5--5--5--5-5-5---------------------------------------|

************************************
| \   Slide down
| ~   Vibrato
************************************
Suggest correction
Give kudos to tab author, rate the tab!
1 2 3 4 5
comments
print report bad tab
guest
You may want to rate the tab now too:
select rating
Wanna post a correction for this tab? Suggest correction