Oops, an error
Loading. Please wait.

Be Gone tab

version 1
version 1

Whole song

Interactive

10,598 views 3 this week
5 commentsread comments
1 2 3 4 5
x 8
add to favorites
×
Save as Personal and add changes to this tab that will be seen only by you. Learn more ›
×
You can save this tab as Personal to edit and correct it or add notes. All changes will be seen only by you. Learn more »
launch autoscroll
font size
0
reset
how to read this tab
guitar tuner
edit
Autoscroll
slow
fast
+/-
esc
set tempo
stop
Author
Brand New
'Be Gone'

I think this sounds right when you play along with the song.

e |--1/2-------------------------------|
B |-----0------------------------------|
G |-------2h4p2--2-4v------------------|
D |------------4-----4v--2h4p2---------|
A |----------------------------5-2v----|
E |------------------------------------|

This is only the main riff, there are other parts that I haven't tabbed here as I 
worked them out. Also, you can mess about with more or fewer hammer ons and pull offs, longer 
etc. whatever you think sounds right.
I tried posting this tab a while ago and it didn't come up on the site so here it is again.
Hope this helps!


/  slide
h  hammer on
p  pull off
v vibrato
Suggest correction
Creating personal tab
Creating personal tab
You can edit any tab online and save it as your Personal.

You can edit, replace or remove any tab part or add personal notes – all changes will be seen only by you.

Personal tabs can be accessed anytime from any device, even offline.
Learn more »
comments
print report bad tab
5 comments total. Showing first comments.
+1 reply
MyrrhRK 50 Sep 26, 2009 02:27 PM

think this sounds better mate

e |--1/2-------------------------------|
B |-----0------------------------------|
G |-------2h4p2---2-4v-----------------|
D |------------4-2----4v--2h4p2--------|
A |----------------------------5-2v----|
E |------------------------------------|

0 reply
RG_FANMAN 210 Sep 28, 2009 09:59 AM

I think you got the right notes and everything, but it sounds like it's being played on a Baritone guitar or something. The last B note sounds pretty low.

+1 reply
Propadanda 10 Oct 02, 2009 05:42 AM

I don't have my iPod on me or the song on this computer so I'm just going off the youtube version of this, apparently all the leaked songs are half a step higher or lower than the studio versions...or something like that. I have my guitar in standard tuning (except for the lowest string which is tuned to the C below E) and I get something like this. You'd have to shift it up or down accordingly if it doesn't fit your version of the song. I'm assuming this is half a step too high because I get something like this for the intro:

e |----------------------------------------|
B |----/8----------------------------------|
G |-------5-3h5p3-----5v-------------------|
D |---------------5-3----5-----3h5p3-------|
A |----------------------------------5-3v--|
C |-0-----------------------0--------------|

That last note, the C I think it is, has a bit of a bend in it too.

guest
You may want to rate the tab now too:
select rating
Wanna post a correction for this tab? Suggest correction