Oops, an error
Loading. Please wait.

Bed Tab

version 1
version 1

Whole song

8,692 views 9 this week
5 commentsread comments
1 2 3 4 5
worth learning
x 5
add to favorites
launch autoscroll
font size
0
reset
how to read this tab
guitar tuner
Tab Pro tools
  • play this tab
  • loop segment
  • change instrument
  • show fretboard
  • metronome
×
Best way to learn
"Bed"
Autoscroll
slow
fast
+/-
esc
set tempo
stop
Difficulty
novice
verse
e-------------------------------------------------------------------|
B-------------------------------------------------------------------|
G---------9-----9-----7-----9-----7---------------------------------|
D-------9-----9-----9-----9-----9-----------------------------------|
A-----7-----7-----7-----7-----7-------------------------------------|
E-------------------------------------------------------------------|

e-------------------------------------------------------------------|
B-------------------------------------------------------------------|
G---------7-----5-----------4-----2---------------------------------|
D-------7-----7-----7-----4-----4-----------------------------------|
A-----5-----5-----5-----2-----2-------------------------------------|
E-------------------------------------------------------------------|

chorus

Em G Am C

Bridge
e-----------------------------------------------------------------------|
B------------------1----------------------------------------------------|
G----------0-----2-------0----------------------------------------------|
D--------0-----2-------2---2-----2--------------------------------------|
A------2-----0-------3---------2---2------------------------------------|
E----3-----------------------0------------------------------------------|

G Am Em Em Am C Em G Am C

Outro
E5 G5
comments
print report bad tab
5 comments total. Showing first comments.
0 reply
CaptnOats10101 wrote on October 7 2009, 07:46 pm

pretty good yo!

0 reply
Alexishxc1337 wrote on October 11 2009, 09:50 pm

i think when they play it live Jesse just plays a regular G at the end, not a G5.

+2 reply
woodhard wrote on October 21 2009, 01:22 am

good start, but im pretty sure the verse goes like this:

e-------------------------------------------------------------------|
B-------------------------------------------------------------------|
G---------9-----9-----7-----9-----7~--------------------------------|
D-------9---9-----9-----9-----9-------------------------------------|
A-----7-------7-----7-----9-----7-----------------------------------|
E-------------------------------------------------------------------|

e-------------------------------------------------------------------|
B-------------------------------------------------------------------|
G---------7-----5------------4-----2--------------------------------|
D-------7---7-----7--------4---4-----4------------------------------|
A-----5-------5-----5----2-------2-----2----------------------------|
E-------------------------------------------------------------------|

I want to post or [tab]
guest
You may want to rate the tab now too:
select rating
Please do not post tabs as comments. Select "correction" instead!