Oops, an error
Loading. Please wait.

Degausser tab

version 3
version 3

Whole song

Interactive

5,084 views 9 this week
5 commentsread comments
1 2 3 4 5
x 3
add to favorites
×
Save as Personal and add changes to this tab that will be seen only by you. Learn more ›
×
You can save this tab as Personal to edit and correct it or add notes. All changes will be seen only by you. Learn more »
launch autoscroll
font size
0
reset
how to read this tab
guitar tuner
edit
Autoscroll
slow
fast
+/-
esc
set tempo
stop
Author
Difficulty
Standard tuning: E (not Eb as Brand New usually does)


Intro:

Jesse:
e--------------------------|
b--------------------------|
g--------------------------|
d---0-----0----------------|
a---7-----5----------------|
e--------------------------|

Vin:

e----------10h0--------------------------------------------7-----|
b----8h0----------10h0-----------------5h0---8h0---10h0----------|
g--9-----9------9------9--12--------7------7------7-----7--------|
d----------------------------------------------------------------|
a----------------------------------------------------------------|
e----------------------------------------------------------------|


After "Take apart your head..."

e---------------------------7h8-7--------------------|
b--12----8------12---8-------------------------------|
g-----------9------------9---------------------------|
d----------------------------------------------------|
a----------------------------------------------------|
e----------------------------------------------------|

e----------------------------------------------|
b--10--7-----10--7-----7h8--7------------------|
g----------7---------7-------------------------|
d----------------------------------------------|
a----------------------------------------------|
e----------------------------------------------|

The next part has chords that sound similar to what jesse plays throughout the song, but 
can probably figure it out better than I can. So hope this helps and sounds right to everyone.

            
            
Suggest correction
Creating personal tab
Creating personal tab
You can edit any tab online and save it as your Personal.

You can edit, replace or remove any tab part or add personal notes – all changes will be seen only by you.

Personal tabs can be accessed anytime from any device, even offline.
Learn more »
Give kudos to tab author, rate the tab!
1 2 3 4 5
comments
print report bad tab
5 comments total. Showing first comments.
0 reply
austinarcadium 40 Jan 01, 2007 09:44 AM

the take apart your head part sounds right, but the vin part seems wrong...

0 reply
mitchrosko 190 Feb 03, 2007 10:40 AM

awful

0 reply
vinesman2 20 Apr 24, 2007 06:43 PM

it's not that awful haha
e----------10h0--------------------------------------------7-----|
b----8h0----------12h0-----------------5h0---8h0---10h0----------|
g--9-----9------9------9--11--------7------7------7-----7--------|
d----------------------------------------------------------------|
a----------------------------------------------------------------|
e----------------------------------------------------------------|
i think this sounds a little better though

guest
You may want to rate the tab now too:
select rating
Wanna post a correction for this tab? Suggest correction