Oops, an error
Loading. Please wait.

Deja Entendu album bass

316 views 18 this week
no commentswrite comment
1 2 3 4 5
3 more votes to show rating
add to favorites
×
Save as Personal and add changes to this tab that will be seen only by you. Learn more ›
×
You can save this tab as Personal to edit and correct it or add notes. All changes will be seen only by you. Learn more »
launch autoscroll
font size
0
reset
guitar tuner
edit
Autoscroll
slow
fast
+/-
esc
set tempo
stop
All songs are also going to be in 1/2 step down tuning (EbAbDbGb/D#G#C#F#) with the exception of
Me Vs. Maradona Vs. Elvis which is in drop D 1/2 step down tuning (C#G#C#F#).


Brand New- Deja Entendu
Track 1- Tautou
Track 2- Sic Transit Gloria Glory Fades
Track 3- I Will Play My Game Beneath the Spin Light
Track 4- Okay I Believe You, But My Tommy Gun Don't
Track 5- The Quiet Things That No One Ever Knows
Track 6- The Boy Who Blocked His Own Shot
Track 7- Jaws Theme Swimming
Track 8- Me Vs. Maradona Vs. Elvis
Track 9- Guernica
Track 10- Good to Know That If I Ever Need Attention All I Have to Do Is Die
Track 11- Play Crack the Sky

Track 1- Tautou
No Bass

**************************************************************************************************************

Track 2- Sic Transit Gloria Glory Fades
Author: kmanpsycho & WillV
Edits: by john.k.pepper (condensed the tab to be an easier read w/ less scrolling)
Tuning: D#G#C#F# (1/2 Step Down)

[Verse]
                                                                            X3
F#|-------------------|-2-1-----2-1---4-|-----------------|-2-1---2-1---2-1--|
C#|-------------------|-----2-------2---|-----------------|-----2-----2------|
G#|---4-4-4-4-4-4-4-4-|-------0---------|-4-4-4-4-4-4-4-4-|------------------|
D#|-------------------|-----------------|-----------------|------------------|
                                               
F#|-------------------|
C#|-------------------|
G#|-------------------|
D#|-2~----------------|
                                                                            X2
F#|-------------------|-2-1-----2-1---4-|-----------------|-2-1---2-1---2-1--|
C#|-------------------|-----2-------2---|-----------------|-----2-----2------|
G#|---4-4-4-4-4-4-4-4-|-------0---------|-4-4-4-4-4-4-4-4-|------------------|
D#|-------------------|-----------------|-----------------|------------------|

[Chorus]
                                                                                                         
F#|-----------------------------------|---------------------------------|---------------------------------|
C#|-----------------------------------|---------------------------------|---------------------------------|
G#|---4-4-4-4-4-4-4-4-----------------|-0-2-4-4-4-4-2-4/9-9-9-9-7-7-7-7-|-0-0-0-0-0-0-0-------------------|
D#|-------------------0-0-0-0-0-0-0-0-|---------------------------------|---------------4-2-2-2-2-0-0-0-0-|


F#|-----------------------------------|---------------------------------|---------------------------------|
C#|-----------------------------------|---------------------------------|---------------------------------|
G#|---4-4-4-4-4-4-4-4-----------------|-0-2-4-4-4-4-2-4/9-9-9-9-7-7-7-7-|-0-0-0-0-0-0-0-------------------|
D#|-------------------0-0-0-0-0-0-0-0-|---------------------------------|---------------4-2-2-2-2-X-X-X-X-|

[Verse]
                                                                            X2
F#|-------------------|-2-1-----2-1---4-|-----------------|-2-1---2-1---2-1--|
C#|-------------------|-----2-------2---|-----------------|-----2-----2------|
G#|---4-4-4-4-4-4-4-4-|-------0---------|-4-4-4-4-4-4-4-4-|------------------|
D#|-------------------|-----------------|-----------------|------------------|
                                               
F#|-------------------|
C#|-------------------|
G#|-------------------|
D#|-0~----------------|
                                                                            X2
F#|-------------------|-2-1-----2-1---4-|-----------------|-2-1---2-1---2-1--|
C#|-------------------|-----2-------2---|-----------------|-----2-----2------|
G#|---4-4-4-4-4-4-4-4-|-------0---------|-4-4-4-4-4-4-4-4-|------------------|
D#|-------------------|-----------------|-----------------|------------------|

[Chorus]
                                                                                                         X2
F#|-----------------------------------|---------------------------------|---------------------------------|
C#|-----------------------------------|---------------------------------|---------------------------------|
G#|---4-4-4-4-4-4-4-4-----------------|-0-2-4-4-4-4-2-4/9-9-9-9-7-7-7-7-|-0-0-0-0-0-0-0-------------------|
D#|-------------------0-0-0-0-0-0-0-0-|---------------------------------|---------------4-2-2-2-2-0-0-0-0-|

[Bridge]
                                                                                                            X3
F#|-----------------------|------------------------|-----------------------|---------------------------------|
C#|-----------------------|------------------------|-----------------------|---------------------------------|
G#|-4-4-0--0-0-4-4-0--0-0-|------------------------|-4-4-0--0-0-4-4-0--0-0-|-7-7-7-7-7-7-7-7-7-7-7-7-7-7-7-7-|
D#|-----------------------|--2-2-0--0-0-2-2-0--0-0-|-----------------------|---------------------------------|

F#|------------------|-----------------|-2-1---2-1---2-1-|
C#|------------------|-----------------|-----2-----2-----|
G#|------------------|-4-4-4-4-4-4-4-4-|-----------------|
D#|-X-X-X-X---REST---|-----------------|-----------------|

[Chorus/Outro]
                                                                                                         
F#|-----------------------------------|---------------------------------|---------------------------------|
C#|-----------------------------------|---------------------------------|---------------------------------|
G#|---4-4-4-4-4-4-4-4-----------------|-0-2-4-4-4-4-2-4/9-9-9-9-7-7-7-7-|-0-0-0-0-0-0-0-------------------|
D#|-------------------0-0-0-0-0-0-0-0-|---------------------------------|---------------4-2-2-2-2-0-0-0-0-|

F#|-----------------------------------|---------------------------------|---------------------------------|
C#|-----------------------------------|---------------------------------|---------------------------------|
G#|--4-4-4-4-4-4-4-4-----------------|-0-2-4-4-4-4-2-4/9-9-9-9-7-7-7-7-|-X-X-X-X-------------------------|
D#|-------------------0-0-0-0-0-0-0-0-|---------------------------------|---------------------------------|

**************************************************************************************************************

Track 3- I Will Play My Game Beneath the Spin Light
Author: XxThreeCheersxX
Tuning: D#G#C#F# (1/2 Step Down)

[Verse I] 

No Bass for first two times through. Listen to the guitar changes. Then:
                                             X2
Gb|-------------------------------------------|
Db|-------------------------------------------|
Ab|-0~------------------3~--------------------|
Eb|-----------0~------------------1~----3~----|

[Chorus]

Gb|-----------------------------------------------------------------|
Db|-----------------------------------------------------------------|
Ab|-3-3-3-3-3-3-3-3-3-3-3-3-3-3-3-----------------------------------|
Eb|-------------------------------3-1-1-1-1-1-1-1-1-1-1-1-1-1-0-1-3-|

Gb|---------------------------------|
Db|---------------------------------|
Ab|---------------------------------|
Eb|-3-3-3-3-3-3-3-3-3-3-3-3-3-3-3-3-|

[Post-Chorus] (no bass)

[Verse II]
                                             X2
Gb|-------------------------------------------|
Db|-------------------------------------------|
Ab|-0~------------------3~--------------------|
Eb|-----------0~------------------1~----3~----|

[Alt Verse II] X2

Gb|-------------------------------------------------------------------------------------------|
Db|-------------------------------------------------------------------------------------------|
Ab|-0-0-0--0-0-0--0-0-0-0-0-0-0-0-------------------------------3-3-3--3-3-3--3-3-3-3-3-3-3-3-|
Eb|-------------------------------0-0-0--0-0-0--0-0-0-0-0-0-0-0-------------------------------|
                                                                                                  
Gb|---------------------------|
Db|---------------------------|
Ab|---------------------------|
Eb|-1--1-1-1-1-1-3--3-3-3-3-3-|

[Chorus]
                                                                                                       X2
Gb|-------------------------------|-----------------------------------|---------------------------------|
Db|-------------------------------|-----------------------------------|---------------------------------|
Ab|-3-3-3-3-3-3-3-3-3-3-3-3-3-3-3-|-----------------------------------|---------------------------------|
Eb|------------------------------ |-3-1-1-1-1-1-1-1-1-1-1-1-1-1-0-1-3-|-3-3-3-3-3-3-3-3-3-3-3-3-3-3-3-3-|
                                   
[Build-up] (come in 2:24)
                   X4
Gb|-----------------|
Db|-----------------|
Ab|-0-0-0-0---------|
Eb|---------0-0-0-0-|

[Bridge]

Gb|--------------------------------------------------|
Db|--------------------------------------------------|
Ab|-3(x16)-0(x16)---------------0(x16)---------------|
Eb|---------------0(x16)-3(x16)--------0(x16)-3(x16)-|

-pause-
                   X4
Gb|-----------------|
Db|-----------------|
Ab|-0-0-0-0---------|
Eb|---------0-0-0-0-|

[Chorus]
                                                                                                       X2
Gb|-------------------------------|-----------------------------------|---------------------------------|
Db|-------------------------------|-----------------------------------|---------------------------------|
Ab|-3-3-3-3-3-3-3-3-3-3-3-3-3-3-3-|-----------------------------------|---------------------------------|
Eb|------------------------------ |-3-1-1-1-1-1-1-1-1-1-1-1-1-1-0-1-3-|-3-3-3-3-3-3-3-3-3-3-3-3-3-3-3-3-|

[Outro]
Gb|-----------------|
Db|-----------------|
Ab|-0-0-0-0---------| x 4
Eb|---------0-0-0-0-|

**************************************************************************************************************

Track 4- Okay I Believe You, But My Tommy Gun Don't
Author: bass_man_dan
Edits: by john.k.pepper (cleaned up for easier reading)
Tuning: D#G#C#F# (1/2 Step Down)

Come In At the 1st Chorus at 2:09 -

[Chorus]

Gb|----------------------------------------|-------------------------------------|
Db|----------------------------------------|-------------------------------------|
Ab|-------------33333333----------33333333-|-------------------00000000-33333333-|
Eb|-10/33333333----------00000000----------|-00000000-33333333-------------------|

[Verse I]
                         X10
Gb|------------------------|
Db|-22-2222-2255-55--------|
Ab|-----------------3333---|
Eb|----------------------0-|

[Verse II] 

Gb|------------------------------------------------------------------------------------------|
Db|------------------------------------------------------------------------------------------|
Ab|-55555555-222222222-----------77777777\55555555-222222222----------7777666655555555555555-|
Eb|--------------------333333333-----------------------------33333333------------------------|

[Chorus]

Gb|----------------------------------------|-------------------------------------|
Db|----------------------------------------|-------------------------------------|
Ab|-------------33333333----------33333333-|-------------------00000000-33333333-|
Eb|-10/33333333----------00000000----------|-00000000-33333333-------------------|

Gb|-------------------------------------|----------------------------------------|
Db|-------------------------------------|----------------------------------------|
Ab|----------33333333----------33333333-|-------------------00000000-33333333----|
Eb|-33333333----------00000000----------|-00000000-33333333----------------------|

[Bridge I]
             X4
Gb|-----------|
Db|-----------|
Ab|---7~------|
Eb|-0----0-0~-|

[Bridge II- Bass Solo]
                          X6
Gb|------------------------|
Db|-22-2222-2255-55--------|
Ab|-----------------3333---|
Eb|----------------------0-|

[Chorus]

Gb|----------------------------------------|-------------------------------------|
Db|----------------------------------------|-------------------------------------|
Ab|-------------33333333----------33333333-|-------------------00000000-33333333-|
Eb|-10/33333333----------00000000----------|-00000000-33333333-------------------|

Gb|-------------------------------------|----------------------------------------|
Db|-------------------------------------|----------------------------------------|
Ab|----------33333333----------33333333-|-------------------00000000-33333333----|
Eb|-33333333----------00000000----------|-00000000-33333333----------------------|

[Outro]

Gb|----------------|-----------|
Db|----------------|-----------|
Ab|---7~---3-------|---7~---3--|
Eb|-0----23-3-2313-|-0----23-3-|

**************************************************************************************************************

Track 5- The Quiet Things That No One Ever Knows
Author: Suicide Machine
Edits: by john.k.pepper (cleaned up for easier reading & fixed the intro/bridge)
Tuning: D#G#C#F# (1/2 Step Down)

[Intro]
                               X2
F#|-----------------------------|
C#|-----------------------0*----|
G#|-----------------3*----------|
D#|-----3*----0*----------------|    
                                                                   X2
F#|-----------------------------------------------------------------|
C#|-----------------------------------------------------------------|
G#|--------------------------------33333333333333335555555555555555-|
D#|33333333333333330000000000000000---------------------------------|

[Verse]

F#|----------------------------------------------------------------------------|
C#|----------------------------------------------------------------------------|
G#|--------------------------3333333333333333------------------333333333333333-|
D#|3-3-8/3-33333333333333333------------------0000000000000000-----------------|

F#|----------------------------------------------------------------------------|
C#|----------------------------------------------------------------------------|
G#|-------------------3333333333333333------------------333333333333333--------|
D#|-33333333333333333------------------0000000000000000------------------------|

[Chorus]
                                                                     X2
F#|-------------------------------------------------------------------|
C#|-------------------------------------------------------------------|
G#|----------------------------------33333333333333335555555555555555-|
D#|-33333333333333330000000000000000----------------------------------|

[Verse]

F#|----------------------------------------------------------------------------|
C#|----------------------------------------------------------------------------|
G#|--------------------------3333333333333333------------------333333333333333-|
D#|3-3-8/3-33333333333333333------------------0000000000000000-----------------|

F#|----------------------------------------------------------------------------|
C#|----------------------------------------------------------------------------|
G#|-------------------3333333333333333------------------333333333333333--------|
D#|-33333333333333333------------------0000000000000000------------------------|

[Chorus]
                                                                     X2
F#|-------------------------------------------------------------------|
C#|-------------------------------------------------------------------|
G#|----------------------------------33333333333333335555555555555555-|
D#|-33333333333333330000000000000000----------------------------------|

[Bridge]
                               X2
F#|-----------------------------|
C#|-----------------------0*----|
G#|-----------------3*----------|
D#|-----3*----0*----------------|  
                                                                     X3
F#|-------------------------------------------------------------------|
C#|-------------------------------------------------------------------|
G#|----------------------------------33333333333333335555555555555555-|
D#|-33333333333333330000000000000000----------------------------------|

F#|-----------------------------------------------------------------|
C#|-----------------------------------------------------------------|
G#|--------------------------------33333333333333335555555555555555-|
D#|-33333\--REST--0000000000000000----------------------------------|

[Outro]
                                                                     X2
F#|-------------------------------------------------------------------|
C#|-------------------------------------------------------------------|
G#|----------------------------------33333333333333335555555555555555-|
D#|-33333333333333330000000000000000----------------------------------|

F#|------------|
C#|------------|
G#|------------|
D#|-3~~~-------|

**************************************************************************************************************

Track 6- The Boy Who Blocked His Own Shot
Author: Paris_In_Flames
Edits: by john.k.pepper (dropped a half-step)
Tuning: D#G#C#F# (1/2 Step Down)

[Intro]

(No Bass)

[Verse] Bass comes in at 0:32
                                                            X3
F#|-----------------------------------------------------------|
C#|-----------------------------------------------------------|
G#|--3----------------------5555555555555555-333333333333333--|
D#|----5p3-3333333333333333-----------------------------------|

[Chorus]

F#|----------------------------------|----------------|
C#|--5~------------------------------|----------------|
G#|----------3-3-3---3-3---3---3-----|-------5~----3~-|
D#|----------------3-----3---3---3-5-|-3~-------------|

[Pre-Verse]

F#|----------------------------------------------------|
C#|----------------------------------------------------|
G#|------------------5555555555555555-REST-3333333333--|
D#|-3333333333333333-----------------------------------|

[Verse]
                                                      X3
F#|----------------------------------------------------|
C#|----------------------------------------------------|
G#|------------------5555555555555555-333333333333333--|
D#|-3333333333333333-----------------------------------|
                                                            
F#|-----------------------------------------------------------|
C#|-----------------------------------------------------------|
G#|--3----------------------5555555555555555-333333333333333--|
D#|----5p3-3333333333333333-----------------------------------|

[Chorus]

F#|----------------------------------|----------------|
C#|--5~------------------------------|----------------|
G#|----------3-3-3---3-3---3---3-----|-------5~----3~-|
D#|----------------3-----3---3---3-5-|-3~-------------|

[Bridge]
                                                      X3
F#|----------------------------------------------------|
C#|----------------------------------------------------|
G#|------------------5555555555555555-333333333333333--|
D#|-3333333333333333-----------------------------------|
                                                             X2
F#|-----------------------------------------------------------|
C#|-----------------------------------------------------------|
G#|--3----------------------5555555555555555-333333333333333--|
D#|----5p3-3333333333333333-----------------------------------|

[Outro]

F#|-------------------------------------|
C#|-5~----------------------------------|
G#|-------5~----3~----------5~----3~----|
D#|-------------------3~----------------|

**************************************************************************************************************

Track 7- Jaws Theme Swimming
Author: safetyinnumbers
Edits: by john.k.pepper (fixed pre-chorus/outro parts)
Tuning: D#G#C#F# (1/2 Step Down)

[Intro]

Gb|----------|
Db|----------|
Ab|----------|
Eb|---0~-----|

[Verse] "In the car outside, we stalked the idle kind"
                              X3
Gb|-----------------------------|
Db|-----------------------------|
Ab|-----------------------------|
Eb|--5h7-7p5-5/3-3p2-5h7-7p5-0~-|

[Pre-Chorus] "But I've seen what happens to the wicked and proud"
                               
Gb|--------------------------------------------2---4-|
Db|------2-4-2-0-----2-4-2-0---5-4-2-0-4---2-4---4---|
Ab|-2--5-----------5---------------------------------|
Eb|--------------3-----------3-----------3-----------|

[Chorus] "And we learn as we age, we've learned nothing"
                                                         X2
Gb|--------------------------------------------------------|
Db|--------------------------------------------------------|
Ab|------------------------------------------------55------|
Eb|-3-0-3-0-3-0-3-0-3-0-2-0-5-0-7-0-7-0-7-0-7-0-7-0--55----|

[Pre-Verse]

Gb|---------------------------|
Db|---------------------------|
Ab|---------------------------|
Eb|-5\15/7h5-5/3p2-5h7-7p5-0~-|

[Verse] "When it got cold outside,smoke beneath the playground lights"
                              X3
Gb|-----------------------------|
Db|-----------------------------|
Ab|-----------------------------|
Eb|--5h7-7p5-5/3-3p2-5h7-7p5-0~-|

[Pre-Chorus] "And everything I said about how messed up your head is"

Gb|--------------------------------------------2---4-|
Db|------2-4-2-0-----2-4-2-0---5-4-2-0-4---2-4---4---|
Ab|-2--5-----------5---------------------------------|
Eb|--------------3-----------3-----------3-----------|

[Chorus] "And we learn as we age, we've learned nothing"
                                                         X2
Gb|--------------------------------------------------------|
Db|--------------------------------------------------------|
Ab|------------------------------------------------55------|
Eb|-3-0-3-0-3-0-3-0-3-0-2-0-5-0-7-0-7-0-7-0-7-0-7-0--55----|

[Pre-Bridge] "And my body leaks like a sieve. Take the picture from off the wall"
                                            X4
Gb|------------------------2-----------2---4-|
Db|------------------0-2-4---4-2-0-2-4---4---|
Ab|------------------------------------------|
Eb|-33333333333333333------------------------|

[Bridge]
                       X2
Gb|----------------------|
Db|----------------------|
Ab|-22-----------22------|
Eb|---33-00-2-5----33-0~-|
                                            X2
Gb|-------------------------|----------------|
Db|-------------------------|----------------|
Ab|-2-2-2-------------------|-2-2-2----------|
Eb|-------3-3-3-0-0-0-0-2-5-|-------3-3-3-0~-|

[Post-Bridge] "And we learn as we age, we've learned nothing"
                                            X4
Gb|------------------------2-----------2---4-|
Db|------------------0-2-4---4-2-0-2-4---4---|
Ab|------------------------------------------|
Eb|-33333333333333333------------------------|

[Outro]

Gb|--------------------------------------------2---4-|
Db|------2-4-2-0-----2-4-2-0---5-4-2-0-4---2-4---4---|
Ab|-2--5-----------5---------------------------------|
Eb|--------------3-----------3-----------3-----------|

Gb|--------------------------------------------2---4----|
Db|------2-4-2-0-----2-4-2-0---5-4-2-0-4---2-4---4------|
Ab|-2--5-----------5---------------------------------2~-|
Eb|--------------3-----------3-----------3--------------|

**************************************************************************************************************

Track 8- Me Vs. Maradona Vs. Elvis
Author: Paris_In_Flames
Edits: by john.k.pepper (cleaned up for easier reading)
Tuning: C#G#C#F# (Drop D 1/2 Step Down)

***DROP D# TO C#***
 
[Intro/Verse] X2
                       X4                    X4
F#|---------------------|---------------------|
C#|---------------------|---------------------|
G#|---------------------|---------------------|
C#|---0-0-0-0-0-0-0-0---|---5-5-5-5-5-5-5-5---|

[Post-Verse]

F#|-------|------|-------|-------------------------------|
C#|-------|------|-------|-------------------------------|
G#|-------|------|-------|-------------------------------|
C#|--4--5-|-9--7-|-4--5--|-9-9-9-9-9-9-9-7-7-7-7-7-7-7-7-|

[Verse]
                       X4                    X4
F#|---------------------|---------------------|
C#|---------------------|---------------------|
G#|---------------------|---------------------|
C#|---0-0-0-0-0-0-0-0---|---5-5-5-5-5-5-5-5---|

[Post-Verse]

F#|-------|------|-------|-------------------------------|
C#|-------|------|-------|-------------------------------|
G#|-------|------|-------|-------------------------------|
C#|--4--5-|-9--7-|-4--5--|-9-9-9-9-9-9-9-7-7-7-7-7-7-7-7-|

[Chorus]
                                 X2
F#|-------------------------------|
C#|-------------------------------|
G#|-------------------------------|
C#|-0-0-0-0-0-0-0-9\7-7-7-7-7-7-7-|

F#|-------------------------------------------------|
C#|-------------------------------------------------|
G#|-------------------------------------------------|
C#|-4-5-5-5-5-5-5---7-7-7-7-7-7-7-4-5-5-5-5-5-5---7-|

[Verse]
                       X4                    X4
F#|---------------------|---------------------|
C#|---------------------|---------------------|
G#|---------------------|---------------------|
C#|---0-0-0-0-0-0-0-0---|---5-5-5-5-5-5-5-5---|

[Post-Verse]

F#|-------|------|-------|-------------------------------|
C#|-------|------|-------|-------------------------------|
G#|-------|------|-------|-------------------------------|
C#|--4--5-|-9--7-|-4--5--|-9-9-9-9-9-9-9-7-7-7-7-7-7-7-7-|

[Verse]
                       X4                    X4
F#|---------------------|---------------------|
C#|---------------------|---------------------|
G#|---------------------|---------------------|
C#|---0-0-0-0-0-0-0-0---|---5-5-5-5-5-5-5-5---|

[Post-Verse]

F#|-------|------|-------|-------------------------------|
C#|-------|------|-------|-------------------------------|
G#|-------|------|-------|-------------------------------|
C#|--4--5-|-9--7-|-4--5--|-9-9-9-9-9-9-9-7-7-7-7-7-7-7-7-|

[Chorus]
                                 X2
F#|-------------------------------|
C#|-------------------------------|
G#|-------------------------------|
C#|-0-0-0-0-0-0-0-9\7-7-7-7-7-7-7-|

F#|-------------------------------------------------|
C#|-------------------------------------------------|
G#|-------------------------------------------------|
C#|-4-5-5-5-5-5-5---7-7-7-7-7-7-7-4-5-5-5-5-5-5---7-|


[Bridge] X2
                       X2                    X2
F#|---------------------|---------------------|
C#|---------------------|---------------------|
G#|---------------------|---------------------|
C#|---0-0-0-0-0-0-0-0---|---5-5-5-5-5-5-5-5---|
                       X2                    X2
F#|---------------------|---------------------|
C#|---------------------|---------------------|
G#|---------------------|---------------------|
C#|---0-0-0-0-0-0-0-0---|---5-5-5-5-5-5-5-5---|

F#|---------------------|---------------------|
C#|---------------------|---------------------|
G#|---------------------|---------------------|
C#|---2-2-2-2-2-2-2-2---|---5-5-5-5-5-5-5-5---|


[Chorus]
                            X2
F#|--------------------------|
C#|--------------------------|
G#|--------------------------|
C#|-0--0--0--9\7-7-7-7-7-7-7-|

F#|-------------------------------------------------|
C#|-------------------------------------------------|
G#|-------------------------------------------------|
C#|-4-5-5-5-5-5-5---7-7-7-7-7-7-7-4-5-5-5-5-5-5---7-|
                            X2
F#|--------------------------|
C#|--------------------------|
G#|--------------------------|
C#|-0--0--0--9\7-7-7-7-7-7-7-|

F#|-------------------------------------------------|
C#|-------------------------------------------------|
G#|-------------------------------------------------|
C#|-4-5-5-5-5-5-5---7-7-7-7-7-7-7-4-5-5-5-5-5-5---7-|

[Outro]
                   X8
F#|-----------------|
C#|-----------------|
G#|-----------------|
C#|-0-0-0-0-0-0-0-0-|

**************************************************************************************************************

Track 9- Guernica
Author: bequickorbedead
Tuning: D#G#C#F# (1/2 Step Down)

***TUNE C# BACK TO D#***


[Intro]
                                                  X2
Gb|------------------------------------------------|
Db|---------------77-555-4h5p4---------------------|
Ab|-777777777-5-5-----------------------0h33333333-|
Eb|----------------------------333333333-----------|

[Verse]
                                                  X2
Gb|------------------------------------------------|
Db|---------------77-555-4h5p4---------------------|
Ab|-777777777-5-5-----------------------0h33333333-|
Eb|----------------------------333333333-----------|

[Pre Chorus]
                                      X2
Gb|------------------------------------|
Db|------------------------------------|
Ab|-7~-------5~--------7~----------7~--|
Eb|-------------------------7~---------|

[Chorus]
                                                                         X2
Gb|-----------------------------------------------------------------------|
Db|-----------------------------------------------------------------------|
Ab|----------55555555------------------------------------7777777777777777-|
Eb|-77777777----------3333333333333333\77777777/55555555------------------|

[Verse]
                                                 X2
Gb|-----------------------------------------------|
Db|--------------77-555-4h5p4---------------------|
Ab|-777777777-55-----------------------0h33333333-|
Eb|---------------------------333333333-----------|

[Pre Chorus]
                                     X2
Gb|-----------------------------------|
Db|-----------------------------------|
Ab|-7~------5~--------7~----------7~--|
Eb|------------------------7~---------|

[Chorus]
                                                                         X2
Gb|-----------------------------------------------------------------------|
Db|-----------------------------------------------------------------------|
Ab|----------55555555------------------------------------7777777777777777-|
Eb|-77777777----------3333333333333333\77777777/55555555------------------|

[Bridge]
                                                                               X2
Gb|-----------------------------------------------------------------------------|
Db|-----------------------------------------------------------------------------|
Ab|-77777777\55555555/22222222\33333333\77777777/55555555-----------333---------|
Eb|-------------------------------------------------------55555555------333--7~-|

[Outro]
                                                                         X2
Gb|-----------------------------------------------------------------------|
Db|-----------------------------------------------------------------------|
Ab|----------55555555------------------------------------7777777777777777-|
Eb|-77777777----------3333333333333333\77777777/55555555------------------|

**************************************************************************************************************

Track 10- Good to Know That If I Ever Need Attention All I Have to Do Is Die
Author: bass_man_dan
Tuning: D#G#C#F# (1/2 Step Down)

[Intro]
                                             X2
Gb|-------------------------------------------|
Db|-------------------------------------------|
Ab|-------------------------------------------|
Eb|-5~~~~~~~5p4~~~~~~~4p3~~~~~~~3p2~~~1p0~~~0-|

[Verse]
                                             X4
Gb|-------------------------------------------|
Db|-------------------------------------------|
Ab|-------------------------------------------|
Eb|-5~~~~~~~5p4~~~~~~~4p3~~~~~~~3p2~~~1p0~~~0-|

[Chorus]
                                                                   X2
Gb|-----------------------------------------------------------------|
Db|-----------------------------------------------------------------|
Ab|-----------------------------------------------------------------|
Eb|-8888888877777777555555553333333311111111000000003333333311111111|

[Verse]
                                             X4
Gb|-------------------------------------------|
Db|-------------------------------------------|
Ab|-------------------------------------------|
Eb|-5~~~~~~~5p4~~~~~~~4p3~~~~~~~3p2~~~1p0~~~0-| 

[Chorus]
                                                                    X2
Gb|------------------------------------------------------------------|
Db|------------------------------------------------------------------|
Ab|------------------------------------------------------------------|
Eb|-8888888877777777555555553333333311111111000000003333333311111111-|

[Bridge]
                                                                         X2
Gb|-----------------------------------------------------------------------|
Db|-----------------------------------------------------------------------|
Ab|-----------------------------------------------------------------------|
Eb|-5-5-5555-5-5-5555-444-4-44444-4-443-3-3333-3-3-3333-1-1-1111-000-0-00-|
                                                                     X2
Gb|-------------------------------------------------------------------|
Db|-------------------------------------------------------------------|
Ab|----------------------5555----7777----5555----7777----3333---------|
Eb|-5785785785785785-4444----4444----3333----3333----1111----11110000-|

[Pre-Chorus]
Gb|---------------------------------|
Db|---------------------------------|
Ab|---------------------------------|
Eb|-5~~~~~~~5~~~~~~~5~~~~~~~5~~~~~~-|

[Chorus]
                                                                    X4
Gb|------------------------------------------------------------------|
Db|------------------------------------------------------------------|
Ab|------------------------------------------------------------------|
Eb|-8888888877777777555555553333333311111111000000003333333311111111-|

[Chorus]

Gb|--------|
Db|--------|
Ab|--------|
Eb|-5~~~---|

[Outro]
                                                                         X2
Gb|-----------------------------------------------------------------------|
Db|-----------------------------------------------------------------------|
Ab|-----------------------------------------------------------------------|
Eb|-5-5-5555-5-5-5555-444-4-44444-4-443-3-3333-3-3-3333-1-1-1111-000-0-00-|
                                                                     X4
Gb|-------------------------------------------------------------------|
Db|-------------------------------------------------------------------|
Ab|---------------------5555----7777----5555----7777----3333----------|
Eb|-5785785785785785-4444----4444----3333----3333----1111----11110000-|

**************************************************************************************************************

Track 11- Play Crack the Sky

No Bass

************************************

| X  Muted Note
| /  Slide up
| \  Slide Down 
| ~  vibrato
| h  hammer-on
| p  pull-off

************************************

            
            
Suggest correction
Creating personal tab
Creating personal tab
You can edit any tab online and save it as your Personal.

You can edit, replace or remove any tab part or add personal notes – all changes will be seen only by you.

Personal tabs can be accessed anytime from any device, even offline.
Learn more »
Give kudos to tab author, rate the tab!
1 2 3 4 5
comments
print report bad tab
guest
You may want to rate the tab now too:
select rating
Wanna post a correction for this tab? Suggest correction